  0
SECTION
  2
HEADER
  9
$ACADVER
  1
AC1015
  9
$ACADMAINTVER
 70
     6
  9
$DWGCODEPAGE
  3
ANSI_1254
  9
$INSBASE
 10
0.0
 20
0.0
 30
0.0
  9
$EXTMIN
 10
0.0
 20
0.0
 30
0.0
  9
$EXTMAX
 10
279.4
 20
215.9
 30
0.0
  9
$LIMMIN
 10
0.0
 20
0.0
  9
$LIMMAX
 10
279.4
 20
215.9
  9
$ORTHOMODE
 70
     0
  9
$REGENMODE
 70
     1
  9
$FILLMODE
 70
     1
  9
$QTEXTMODE
 70
     0
  9
$MIRRTEXT
 70
     1
  9
$LTSCALE
 40
1.0
  9
$ATTMODE
 70
     1
  9
$TEXTSIZE
 40
3.5
  9
$TRACEWID
 40
1.0
  9
$TEXTSTYLE
  7
Standard
  9
$CLAYER
  8
0
  9
$CELTYPE
  6
ByLayer
  9
$CECOLOR
 62
   256
  9
$CELTSCALE
 40
1.0
  9
$DISPSILH
 70
     0
  9
$DIMSCALE
 40
1.0
  9
$DIMASZ
 40
3.5
  9
$DIMEXO
 40
1.0
  9
$DIMDLI
 40
3.75
  9
$DIMRND
 40
0.0
  9
$DIMDLE
 40
0.0
  9
$DIMEXE
 40
1.0
  9
$DIMTP
 40
0.0
  9
$DIMTM
 40
0.0
  9
$DIMTXT
 40
3.5
  9
$DIMCEN
 40
2.5
  9
$DIMTSZ
 40
0.0
  9
$DIMTOL
 70
     0
  9
$DIMLIM
 70
     0
  9
$DIMTIH
 70
     1
  9
$DIMTOH
 70
     1
  9
$DIMSE1
 70
     0
  9
$DIMSE2
 70
     0
  9
$DIMTAD
 70
     1
  9
$DIMZIN
 70
     0
  9
$DIMBLK
  1

  9
$DIMASO
 70
     1
  9
$DIMSHO
 70
     1
  9
$DIMPOST
  1

  9
$DIMAPOST
  1

  9
$DIMALT
 70
     0
  9
$DIMALTD
 70
     3
  9
$DIMALTF
 40
0.0393700787
  9
$DIMLFAC
 40
1.0
  9
$DIMTOFL
 70
     1
  9
$DIMTVP
 40
0.0
  9
$DIMTIX
 70
     0
  9
$DIMSOXD
 70
     0
  9
$DIMSAH
 70
     0
  9
$DIMBLK1
  1

  9
$DIMBLK2
  1

  9
$DIMSTYLE
  2
ISO-25
  9
$DIMCLRD
 70
     0
  9
$DIMCLRE
 70
     0
  9
$DIMCLRT
 70
     0
  9
$DIMTFAC
 40
1.0
  9
$DIMGAP
 40
1.524
  9
$DIMJUST
 70
     0
  9
$DIMSD1
 70
     0
  9
$DIMSD2
 70
     0
  9
$DIMTOLJ
 70
     0
  9
$DIMTZIN
 70
     0
  9
$DIMALTZ
 70
     0
  9
$DIMALTTZ
 70
     0
  9
$DIMUPT
 70
     0
  9
$DIMDEC
 70
     2
  9
$DIMTDEC
 70
     2
  9
$DIMALTU
 70
     2
  9
$DIMALTTD
 70
     3
  9
$DIMTXSTY
  7
Standard
  9
$DIMAUNIT
 70
     0
  9
$DIMADEC
 70
     2
  9
$DIMALTRND
 40
0.0
  9
$DIMAZIN
 70
     0
  9
$DIMDSEP
 70
    44
  9
$DIMATFIT
 70
     3
  9
$DIMFRAC
 70
     0
  9
$DIMLDRBLK
  1

  9
$DIMLUNIT
 70
     2
  9
$DIMLWD
 70
    -2
  9
$DIMLWE
 70
    -2
  9
$DIMTMOVE
 70
     0
  9
$LUNITS
 70
     2
  9
$LUPREC
 70
     2
  9
$SKETCHINC
 40
1.0
  9
$FILLETRAD
 40
10.0
  9
$AUNITS
 70
     0
  9
$AUPREC
 70
     2
  9
$MENU
  1
.
  9
$ELEVATION
 40
0.0
  9
$PELEVATION
 40
0.0
  9
$THICKNESS
 40
0.0
  9
$LIMCHECK
 70
     0
  9
$CHAMFERA
 40
0.0
  9
$CHAMFERB
 40
0.0
  9
$CHAMFERC
 40
0.0
  9
$CHAMFERD
 40
0.0
  9
$SKPOLY
 70
     0
  9
$TDCREATE
 40
2459741.606093981
  9
$TDUCREATE
 40
2459741.481093981
  9
$TDUPDATE
 40
2459741.606094155
  9
$TDUUPDATE
 40
2459741.481094155
  9
$TDINDWG
 40
0.0000000116
  9
$TDUSRTIMER
 40
0.0000000116
  9
$USRTIMER
 70
     1
  9
$ANGBASE
 50
0.0
  9
$ANGDIR
 70
     0
  9
$PDMODE
 70
     0
  9
$PDSIZE
 40
-1.0
  9
$PLINEWID
 40
0.0
  9
$SPLFRAME
 70
     0
  9
$SPLINETYPE
 70
     6
  9
$SPLINESEGS
 70
     8
  9
$HANDSEED
  5
102
  9
$SURFTAB1
 70
     6
  9
$SURFTAB2
 70
     6
  9
$SURFTYPE
 70
     6
  9
$SURFU
 70
     6
  9
$SURFV
 70
     6
  9
$UCSBASE
  2

  9
$UCSNAME
  2

  9
$UCSORG
 10
0.0
 20
0.0
 30
0.0
  9
$UCSXDIR
 10
1.0
 20
0.0
 30
0.0
  9
$UCSYDIR
 10
0.0
 20
1.0
 30
0.0
  9
$UCSORTHOREF
  2

  9
$UCSORTHOVIEW
 70
     0
  9
$UCSORGTOP
 10
0.0
 20
0.0
 30
0.0
  9
$UCSORGBOTTOM
 10
0.0
 20
0.0
 30
0.0
  9
$UCSORGLEFT
 10
0.0
 20
0.0
 30
0.0
  9
$UCSORGRIGHT
 10
0.0
 20
0.0
 30
0.0
  9
$UCSORGFRONT
 10
0.0
 20
0.0
 30
0.0
  9
$UCSORGBACK
 10
0.0
 20
0.0
 30
0.0
  9
$PUCSBASE
  2

  9
$PUCSNAME
  2

  9
$PUCSORG
 10
0.0
 20
0.0
 30
0.0
  9
$PUCSXDIR
 10
1.0
 20
0.0
 30
0.0
  9
$PUCSYDIR
 10
0.0
 20
1.0
 30
0.0
  9
$PUCSORTHOREF
  2

  9
$PUCSORTHOVIEW
 70
     0
  9
$PUCSORGTOP
 10
0.0
 20
0.0
 30
0.0
  9
$PUCSORGBOTTOM
 10
0.0
 20
0.0
 30
0.0
  9
$PUCSORGLEFT
 10
0.0
 20
0.0
 30
0.0
  9
$PUCSORGRIGHT
 10
0.0
 20
0.0
 30
0.0
  9
$PUCSORGFRONT
 10
0.0
 20
0.0
 30
0.0
  9
$PUCSORGBACK
 10
0.0
 20
0.0
 30
0.0
  9
$USERI1
 70
     0
  9
$USERI2
 70
     0
  9
$USERI3
 70
     0
  9
$USERI4
 70
     0
  9
$USERI5
 70
     0
  9
$USERR1
 40
0.0
  9
$USERR2
 40
0.0
  9
$USERR3
 40
0.0
  9
$USERR4
 40
0.0
  9
$USERR5
 40
0.0
  9
$WORLDVIEW
 70
     1
  9
$SHADEDGE
 70
     3
  9
$SHADEDIF
 70
    70
  9
$TILEMODE
 70
     1
  9
$MAXACTVP
 70
    64
  9
$PINSBASE
 10
0.0
 20
0.0
 30
0.0
  9
$PLIMCHECK
 70
     0
  9
$PEXTMIN
 10
1.0000000000E+20
 20
1.0000000000E+20
 30
1.0000000000E+20
  9
$PEXTMAX
 10
-1.0000000000E+20
 20
-1.0000000000E+20
 30
-1.0000000000E+20
  9
$PLIMMIN
 10
0.0
 20
0.0
  9
$PLIMMAX
 10
420.0
 20
297.0
  9
$UNITMODE
 70
     0
  9
$VISRETAIN
 70
     1
  9
$PLINEGEN
 70
     0
  9
$PSLTSCALE
 70
     1
  9
$TREEDEPTH
 70
  3020
  9
$CMLSTYLE
  2
Standard
  9
$CMLJUST
 70
     0
  9
$CMLSCALE
 40
20.0
  9
$PROXYGRAPHICS
 70
     1
  9
$MEASUREMENT
 70
     1
  9
$CELWEIGHT
370
    -1
  9
$ENDCAPS
280
     0
  9
$JOINSTYLE
280
     0
  9
$LWDISPLAY
290
     1
  9
$INSUNITS
 70
     4
  9
$HYPERLINKBASE
  1

  9
$STYLESHEET
  1

  9
$XEDIT
290
     1
  9
$CEPSNTYPE
380
     0
  9
$PSTYLEMODE
290
     1
  9
$FINGERPRINTGUID
  2
{199f6166-0332-4061-89d1-b0020657107f}
  9
$VERSIONGUID
  2
{FAEB1C32-E019-11D5-929B-00C0DF256EC4}
  9
$EXTNAMES
290
     1
  9
$PSVPSCALE
 40
0.0
  9
$OLESTARTUP
290
     0
  0
ENDSEC
  0
SECTION
  2
CLASSES
  0
CLASS
  1
ACDBDICTIONARYWDFLT
  2
AcDbDictionaryWithDefault
  3
ObjectDBX Classes
 90
        0
280
     0
281
     0
  0
CLASS
  1
VISUALSTYLE
  2
AcDbVisualStyle
  3
ObjectDBX Classes
 90
     4095
280
     0
281
     0
  0
CLASS
  1
MATERIAL
  2
AcDbMaterial
  3
ObjectDBX Classes
 90
     1153
280
     0
281
     0
  0
CLASS
  1
SCALE
  2
AcDbScale
  3
ObjectDBX Classes
 90
     1153
280
     0
281
     0
  0
CLASS
  1
TABLESTYLE
  2
AcDbTableStyle
  3
ObjectDBX Classes
 90
     4095
280
     0
281
     0
  0
CLASS
  1
MLEADERSTYLE
  2
AcDbMLeaderStyle
  3
ACDB_MLEADERSTYLE_CLASS
 90
     4095
280
     0
281
     0
  0
CLASS
  1
SUN
  2
AcDbSun
  3
SCENEOE
 90
     1153
280
     0
281
     0
  0
CLASS
  1
ACDBPLACEHOLDER
  2
AcDbPlaceHolder
  3
ObjectDBX Classes
 90
        0
280
     0
281
     0
  0
CLASS
  1
LAYOUT
  2
AcDbLayout
  3
ObjectDBX Classes
 90
        0
280
     0
281
     0
  0
ENDSEC
  0
SECTION
  2
TABLES
  0
TABLE
  2
VPORT
  5
8
330
0
100
AcDbSymbolTable
 70
     1
  0
VPORT
  5
29
330
8
100
AcDbSymbolTableRecord
100
AcDbViewportTableRecord
  2
*Active
 70
     0
 10
0.0
 20
0.0
 11
1.0
 21
1.0
 12
139.7
 22
107.95
 13
0.0
 23
0.0
 14
10.0
 24
10.0
 15
10.0
 25
10.0
 16
0.0
 26
0.0
 36
1.0
 17
0.0
 27
0.0
 37
0.0
 40
215.9
 41
1.2941176471
 42
50.0
 43
0.0
 44
0.0
 50
0.0
 51
0.0
 71
     0
 72
  2000
 73
     1
 74
     3
 75
     0
 76
     0
 77
     0
 78
     0
281
     0
 65
     1
110
0.0
120
0.0
130
0.0
111
1.0
121
0.0
131
0.0
112
0.0
122
1.0
132
0.0
 79
     0
146
0.0
  0
ENDTAB
  0
TABLE
  2
LTYPE
  5
5
330
0
100
AcDbSymbolTable
 70
     6
  0
LTYPE
  5
14
330
5
100
AcDbSymbolTableRecord
100
AcDbLinetypeTableRecord
  2
ByBlock
 70
     0
  3

 72
    65
 73
     0
 40
0.0
  0
LTYPE
  5
15
330
5
100
AcDbSymbolTableRecord
100
AcDbLinetypeTableRecord
  2
ByLayer
 70
     0
  3

 72
    65
 73
     0
 40
0.0
  0
LTYPE
  5
16
330
5
100
AcDbSymbolTableRecord
100
AcDbLinetypeTableRecord
  2
Continuous
 70
     0
  3
Solid line
 72
    65
 73
     0
 40
0.0
  0
LTYPE
  5
6E
330
5
100
AcDbSymbolTableRecord
100
AcDbLinetypeTableRecord
  2
HIDDEN
 70
     0
  3
Hidden __ __ __ __ __ __ __ __ __ __ __ __ __ __
 72
    65
 73
     2
 40
1.905
 49
1.27
 74
     0
 49
-0.635
 74
     0
  0
LTYPE
  5
6F
330
5
100
AcDbSymbolTableRecord
100
AcDbLinetypeTableRecord
  2
PHANTOM
 70
     0
  3
Phantom ______  __  __  ______  __  __  ______
 72
    65
 73
     6
 40
12.7
 49
6.35
 74
     0
 49
-1.27
 74
     0
 49
1.27
 74
     0
 49
-1.27
 74
     0
 49
1.27
 74
     0
 49
-1.27
 74
     0
  0
LTYPE
  5
70
330
5
100
AcDbSymbolTableRecord
100
AcDbLinetypeTableRecord
  2
CENTER
 70
     0
  3
Center ____ _ ____ _ ____ _ ____ _ ____ _ ____
 72
    65
 73
     4
 40
10.16
 49
6.35
 74
     0
 49
-1.27
 74
     0
 49
1.27
 74
     0
 49
-1.27
 74
     0
  0
LTYPE
  5
71
330
5
100
AcDbSymbolTableRecord
100
AcDbLinetypeTableRecord
  2
CENTERX2
 70
     0
  3
Center (2x) ________  __  ________  __  _____
 72
    65
 73
     4
 40
20.32
 49
12.7
 74
     0
 49
-2.54
 74
     0
 49
2.54
 74
     0
 49
-2.54
 74
     0
  0
LTYPE
  5
72
330
5
100
AcDbSymbolTableRecord
100
AcDbLinetypeTableRecord
  2
DOT2
 70
     0
  3
Dot (.5x) ........................................
 72
    65
 73
     2
 40
0.635
 49
0.0
 74
     0
 49
-0.635
 74
     0
  0
ENDTAB
  0
TABLE
  2
LAYER
  5
2
330
0
100
AcDbSymbolTable
 70
    17
  0
LAYER
  5
10
330
2
100
AcDbSymbolTableRecord
100
AcDbLayerTableRecord
  2
0
 70
     0
 62
     7
  6
Continuous
370
    -3
390
F
  0
LAYER
  5
73
330
2
100
AcDbSymbolTableRecord
100
AcDbLayerTableRecord
  2
FORMAT
 70
     0
 62
     7
  6
Continuous
370
    -3
390
F
  0
LAYER
  5
74
330
2
100
AcDbSymbolTableRecord
100
AcDbLayerTableRecord
  2
YARDIMCI_GEOMETRI
 70
     0
 62
    -6
  6
Continuous
290
     0
370
    -3
390
F
  0
LAYER
  5
75
330
2
100
AcDbSymbolTableRecord
100
AcDbLayerTableRecord
  2
SAYFA_CERCEVESI
 70
     0
 62
     7
  6
Continuous
370
    25
390
F
  0
LAYER
  5
76
330
2
100
AcDbSymbolTableRecord
100
AcDbLayerTableRecord
  2
ANTET
 70
     0
 62
     7
  6
Continuous
370
    -3
390
F
  0
LAYER
  5
77
330
2
100
AcDbSymbolTableRecord
100
AcDbLayerTableRecord
  2
OLCU
 70
     0
 62
   150
  6
Continuous
370
    -3
390
F
  0
LAYER
  5
78
330
2
100
AcDbSymbolTableRecord
100
AcDbLayerTableRecord
  2
METIN
 70
     0
 62
    96
  6
Continuous
370
    -3
390
F
  0
LAYER
  5
79
330
2
100
AcDbSymbolTableRecord
100
AcDbLayerTableRecord
  2
BALON
 70
     0
 62
     5
  6
Continuous
370
    -3
390
F
  0
LAYER
  5
7A
330
2
100
AcDbSymbolTableRecord
100
AcDbLayerTableRecord
  2
VURGU
 70
     0
 62
     7
  6
Continuous
370
    -3
390
F
  0
LAYER
  5
7B
330
2
100
AcDbSymbolTableRecord
100
AcDbLayerTableRecord
  2
SILIK
 70
     0
 62
     7
  6
Continuous
370
    -3
390
F
  0
LAYER
  5
7C
330
2
100
AcDbSymbolTableRecord
100
AcDbLayerTableRecord
  2
MODEL
 70
     0
 62
     7
  6
Continuous
370
    -3
390
F
  0
LAYER
  5
7D
330
2
100
AcDbSymbolTableRecord
100
AcDbLayerTableRecord
  2
DETAYLANDıRMA
 70
     0
 62
   190
  6
Continuous
370
    -3
390
F
  0
LAYER
  5
7E
330
2
100
AcDbSymbolTableRecord
100
AcDbLayerTableRecord
  2
TOLERANS
 70
     0
 62
   230
  6
Continuous
370
    -3
390
F
  0
LAYER
  5
7F
330
2
100
AcDbSymbolTableRecord
100
AcDbLayerTableRecord
  2
MERKEZ_CIZGILERI
 70
     0
 62
    30
  6
Continuous
370
    -3
390
F
  0
LAYER
  5
80
330
2
100
AcDbSymbolTableRecord
100
AcDbLayerTableRecord
  2
KESIT-DETAY_CIZGILERI
 70
     0
 62
     7
  6
Continuous
370
    -3
390
F
  0
LAYER
  5
81
330
2
100
AcDbSymbolTableRecord
100
AcDbLayerTableRecord
  2
\U+041E\U+0421\U+0415\U+0412\U+042B\U+0415
 70
     0
 62
     7
  6
Continuous
370
    -3
390
F
  0
LAYER
  5
82
330
2
100
AcDbSymbolTableRecord
100
AcDbLayerTableRecord
  2
\U+0412\U+041E\U+0414\U+042F\U+041D\U+042B\U+0415_\U+0417\U+041D\U+0410\U+041A\U+0418
 70
     0
 62
    11
  6
Continuous
370
    -3
390
F
  0
ENDTAB
  0
TABLE
  2
STYLE
  5
3
330
0
100
AcDbSymbolTable
 70
     1
  0
STYLE
  5
11
330
3
100
AcDbSymbolTableRecord
100
AcDbTextStyleTableRecord
  2
Standard
 70
     0
 40
0.0
 41
1.0
 50
0.0
 71
     0
 42
3.5
  3
txt
  4

  0
ENDTAB
  0
TABLE
  2
VIEW
  5
6
330
0
100
AcDbSymbolTable
 70
     0
  0
ENDTAB
  0
TABLE
  2
UCS
  5
7
330
0
100
AcDbSymbolTable
 70
     0
  0
ENDTAB
  0
TABLE
  2
APPID
  5
9
330
0
100
AcDbSymbolTable
 70
     1
  0
APPID
  5
12
330
9
100
AcDbSymbolTableRecord
100
AcDbRegAppTableRecord
  2
ACAD
 70
     0
  0
ENDTAB
  0
TABLE
  2
DIMSTYLE
  5
A
330
0
100
AcDbSymbolTable
 70
     1
100
AcDbDimStyleTable
  0
DIMSTYLE
105
27
330
A
100
AcDbSymbolTableRecord
100
AcDbDimStyleTableRecord
  2
ISO-25
 70
     0
 41
2.5
 42
0.625
 43
3.75
 44
1.25
 73
     0
 74
     0
 77
     1
 78
     8
140
2.5
141
2.5
143
0.0393700787
147
0.625
171
     3
172
     1
178
     0
271
     2
272
     2
274
     3
278
    44
283
     0
284
     8
340
11
  0
ENDTAB
  0
TABLE
  2
BLOCK_RECORD
  5
1
330
0
100
AcDbSymbolTable
 70
     5
  0
BLOCK_RECORD
  5
1F
330
1
100
AcDbSymbolTableRecord
100
AcDbBlockTableRecord
  2
*Model_Space
340
22
  0
BLOCK_RECORD
  5
1B
330
1
100
AcDbSymbolTableRecord
100
AcDbBlockTableRecord
  2
*Paper_Space
340
1E
  0
BLOCK_RECORD
  5
23
330
1
100
AcDbSymbolTableRecord
100
AcDbBlockTableRecord
  2
*Paper_Space0
340
26
  0
BLOCK_RECORD
  5
8B
330
1
100
AcDbSymbolTableRecord
100
AcDbBlockTableRecord
  2
SW_CENTERMARKSYMBOL_0
340
0
102
{BLKREFS
331
96
102
}
  0
BLOCK_RECORD
  5
A9
330
1
100
AcDbSymbolTableRecord
100
AcDbBlockTableRecord
  2
SW_CENTERMARKSYMBOL_1
340
0
102
{BLKREFS
331
B4
102
}
  0
BLOCK_RECORD
  5
D9
330
1
100
AcDbSymbolTableRecord
100
AcDbBlockTableRecord
  2
SW_CENTERMARKSYMBOL_2
340
0
102
{BLKREFS
331
E4
102
}
  0
BLOCK_RECORD
  5
E5
330
1
100
AcDbSymbolTableRecord
100
AcDbBlockTableRecord
  2
SW_CENTERMARKSYMBOL_3
340
0
102
{BLKREFS
331
F0
102
}
  0
ENDTAB
  0
ENDSEC
  0
SECTION
  2
BLOCKS
  0
BLOCK
  5
20
330
1F
100
AcDbEntity
  8
0
100
AcDbBlockBegin
  2
*Model_Space
 70
     0
 10
0.0
 20
0.0
 30
0.0
  3
*Model_Space
  1

  0
ENDBLK
  5
21
330
1F
100
AcDbEntity
  8
0
100
AcDbBlockEnd
  0
BLOCK
  5
1C
330
1B
100
AcDbEntity
 67
     1
  8
0
100
AcDbBlockBegin
  2
*Paper_Space
 70
     0
 10
0.0
 20
0.0
 30
0.0
  3
*Paper_Space
  1

  0
ENDBLK
  5
1D
330
1B
100
AcDbEntity
 67
     1
  8
0
100
AcDbBlockEnd
  0
BLOCK
  5
24
330
23
100
AcDbEntity
  8
0
100
AcDbBlockBegin
  2
*Paper_Space0
 70
     0
 10
0.0
 20
0.0
 30
0.0
  3
*Paper_Space0
  1

  0
ENDBLK
  5
25
330
23
100
AcDbEntity
  8
0
100
AcDbBlockEnd
  0
BLOCK
  5
8C
330
8B
100
AcDbEntity
  8
0
100
AcDbBlockBegin
  2
SW_CENTERMARKSYMBOL_0
 70
     0
 10
0.0
 20
0.0
 30
0.0
  3
SW_CENTERMARKSYMBOL_0
  1

  0
LINE
  5
8E
330
8B
100
AcDbEntity
  8
FORMAT
 62
     0
100
AcDbLine
 10
0.0
 20
0.0
 30
0.0
 11
0.0
 21
2.5
 31
0.0
  0
LINE
  5
8F
330
8B
100
AcDbEntity
  8
FORMAT
 62
     0
100
AcDbLine
 10
0.0
 20
0.0
 30
0.0
 11
-2.5
 21
0.0
 31
0.0
  0
LINE
  5
90
330
8B
100
AcDbEntity
  8
FORMAT
 62
     0
100
AcDbLine
 10
0.0
 20
0.0
 30
0.0
 11
0.0
 21
-2.5
 31
0.0
  0
LINE
  5
91
330
8B
100
AcDbEntity
  8
FORMAT
 62
     0
100
AcDbLine
 10
0.0
 20
0.0
 30
0.0
 11
2.5
 21
0.0
 31
0.0
  0
LINE
  5
92
330
8B
100
AcDbEntity
  8
FORMAT
 62
     0
100
AcDbLine
 10
0.0
 20
5.0
 30
0.0
 11
0.0
 21
50.0
 31
0.0
  0
LINE
  5
93
330
8B
100
AcDbEntity
  8
FORMAT
 62
     0
100
AcDbLine
 10
-5.0
 20
0.0
 30
0.0
 11
-50.0
 21
0.0
 31
0.0
  0
LINE
  5
94
330
8B
100
AcDbEntity
  8
FORMAT
 62
     0
100
AcDbLine
 10
0.0
 20
-5.0
 30
0.0
 11
0.0
 21
-50.0
 31
0.0
  0
LINE
  5
95
330
8B
100
AcDbEntity
  8
FORMAT
 62
     0
100
AcDbLine
 10
5.0
 20
0.0
 30
0.0
 11
50.0
 21
0.0
 31
0.0
  0
ENDBLK
  5
8D
330
8B
100
AcDbEntity
  8
0
100
AcDbBlockEnd
  0
BLOCK
  5
AA
330
A9
100
AcDbEntity
  8
0
100
AcDbBlockBegin
  2
SW_CENTERMARKSYMBOL_1
 70
     0
 10
0.0
 20
0.0
 30
0.0
  3
SW_CENTERMARKSYMBOL_1
  1

  0
LINE
  5
AC
330
A9
100
AcDbEntity
  8
FORMAT
 62
     0
100
AcDbLine
 10
0.0
 20
0.0
 30
0.0
 11
0.0
 21
2.5
 31
0.0
  0
LINE
  5
AD
330
A9
100
AcDbEntity
  8
FORMAT
 62
     0
100
AcDbLine
 10
0.0
 20
0.0
 30
0.0
 11
-2.5
 21
0.0
 31
0.0
  0
LINE
  5
AE
330
A9
100
AcDbEntity
  8
FORMAT
 62
     0
100
AcDbLine
 10
0.0
 20
0.0
 30
0.0
 11
0.0
 21
-2.5
 31
0.0
  0
LINE
  5
AF
330
A9
100
AcDbEntity
  8
FORMAT
 62
     0
100
AcDbLine
 10
0.0
 20
0.0
 30
0.0
 11
2.5
 21
0.0
 31
0.0
  0
LINE
  5
B0
330
A9
100
AcDbEntity
  8
FORMAT
 62
     0
100
AcDbLine
 10
0.0
 20
5.0
 30
0.0
 11
0.0
 21
34.0
 31
0.0
  0
LINE
  5
B1
330
A9
100
AcDbEntity
  8
FORMAT
 62
     0
100
AcDbLine
 10
-5.0
 20
0.0
 30
0.0
 11
-34.0
 21
0.0
 31
0.0
  0
LINE
  5
B2
330
A9
100
AcDbEntity
  8
FORMAT
 62
     0
100
AcDbLine
 10
0.0
 20
-5.0
 30
0.0
 11
0.0
 21
-34.0
 31
0.0
  0
LINE
  5
B3
330
A9
100
AcDbEntity
  8
FORMAT
 62
     0
100
AcDbLine
 10
5.0
 20
0.0
 30
0.0
 11
34.0
 21
0.0
 31
0.0
  0
ENDBLK
  5
AB
330
A9
100
AcDbEntity
  8
0
100
AcDbBlockEnd
  0
BLOCK
  5
DA
330
D9
100
AcDbEntity
  8
0
100
AcDbBlockBegin
  2
SW_CENTERMARKSYMBOL_2
 70
     0
 10
0.0
 20
0.0
 30
0.0
  3
SW_CENTERMARKSYMBOL_2
  1

  0
LINE
  5
DC
330
D9
100
AcDbEntity
  8
FORMAT
 62
     0
100
AcDbLine
 10
0.0
 20
0.0
 30
0.0
 11
0.0
 21
2.5
 31
0.0
  0
LINE
  5
DD
330
D9
100
AcDbEntity
  8
FORMAT
 62
     0
100
AcDbLine
 10
0.0
 20
0.0
 30
0.0
 11
-2.5
 21
0.0
 31
0.0
  0
LINE
  5
DE
330
D9
100
AcDbEntity
  8
FORMAT
 62
     0
100
AcDbLine
 10
0.0
 20
0.0
 30
0.0
 11
0.0
 21
-2.5
 31
0.0
  0
LINE
  5
DF
330
D9
100
AcDbEntity
  8
FORMAT
 62
     0
100
AcDbLine
 10
0.0
 20
0.0
 30
0.0
 11
2.5
 21
0.0
 31
0.0
  0
LINE
  5
E0
330
D9
100
AcDbEntity
  8
FORMAT
 62
     0
100
AcDbLine
 10
0.0
 20
5.0
 30
0.0
 11
0.0
 21
9.5
 31
0.0
  0
LINE
  5
E1
330
D9
100
AcDbEntity
  8
FORMAT
 62
     0
100
AcDbLine
 10
-5.0
 20
0.0
 30
0.0
 11
-9.5
 21
0.0
 31
0.0
  0
LINE
  5
E2
330
D9
100
AcDbEntity
  8
FORMAT
 62
     0
100
AcDbLine
 10
0.0
 20
-5.0
 30
0.0
 11
0.0
 21
-9.5
 31
0.0
  0
LINE
  5
E3
330
D9
100
AcDbEntity
  8
FORMAT
 62
     0
100
AcDbLine
 10
5.0
 20
0.0
 30
0.0
 11
9.5
 21
0.0
 31
0.0
  0
ENDBLK
  5
DB
330
D9
100
AcDbEntity
  8
0
100
AcDbBlockEnd
  0
BLOCK
  5
E6
330
E5
100
AcDbEntity
  8
0
100
AcDbBlockBegin
  2
SW_CENTERMARKSYMBOL_3
 70
     0
 10
0.0
 20
0.0
 30
0.0
  3
SW_CENTERMARKSYMBOL_3
  1

  0
LINE
  5
E8
330
E5
100
AcDbEntity
  8
FORMAT
 62
     0
100
AcDbLine
 10
0.0
 20
0.0
 30
0.0
 11
0.0
 21
2.5
 31
0.0
  0
LINE
  5
E9
330
E5
100
AcDbEntity
  8
FORMAT
 62
     0
100
AcDbLine
 10
0.0
 20
0.0
 30
0.0
 11
-2.5
 21
0.0
 31
0.0
  0
LINE
  5
EA
330
E5
100
AcDbEntity
  8
FORMAT
 62
     0
100
AcDbLine
 10
0.0
 20
0.0
 30
0.0
 11
0.0
 21
-2.5
 31
0.0
  0
LINE
  5
EB
330
E5
100
AcDbEntity
  8
FORMAT
 62
     0
100
AcDbLine
 10
0.0
 20
0.0
 30
0.0
 11
2.5
 21
0.0
 31
0.0
  0
LINE
  5
EC
330
E5
100
AcDbEntity
  8
FORMAT
 62
     0
100
AcDbLine
 10
0.0
 20
5.0
 30
0.0
 11
0.0
 21
9.5
 31
0.0
  0
LINE
  5
ED
330
E5
100
AcDbEntity
  8
FORMAT
 62
     0
100
AcDbLine
 10
-5.0
 20
0.0
 30
0.0
 11
-9.5
 21
0.0
 31
0.0
  0
LINE
  5
EE
330
E5
100
AcDbEntity
  8
FORMAT
 62
     0
100
AcDbLine
 10
0.0
 20
-5.0
 30
0.0
 11
0.0
 21
-9.5
 31
0.0
  0
LINE
  5
EF
330
E5
100
AcDbEntity
  8
FORMAT
 62
     0
100
AcDbLine
 10
5.0
 20
0.0
 30
0.0
 11
9.5
 21
0.0
 31
0.0
  0
ENDBLK
  5
E7
330
E5
100
AcDbEntity
  8
0
100
AcDbBlockEnd
  0
ENDSEC
  0
SECTION
  2
ENTITIES
  0
LINE
  5
83
330
1F
100
AcDbEntity
  8
0
  6
Continuous
 62
     7
370
    25
100
AcDbLine
 10
123.1331132716
 20
162.2255732433
 30
0.0
 11
123.1331132716
 21
191.7407445147
 31
0.0
  0
LINE
  5
84
330
1F
100
AcDbEntity
  8
0
  6
Continuous
 62
     7
370
    25
100
AcDbLine
 10
109.1331132716
 20
191.7407445147
 30
0.0
 11
109.1331132716
 21
162.2226498576
 31
0.0
  0
LINE
  5
85
330
1F
100
AcDbEntity
  8
0
  6
Continuous
 62
     7
370
    25
100
AcDbLine
 10
151.7152434116
 20
83.7407445147
 30
0.0
 11
238.1331132716
 21
83.7407445147
 31
0.0
  0
LINE
  5
86
330
1F
100
AcDbEntity
  8
0
  6
Continuous
 62
     7
370
    25
100
AcDbLine
 10
238.1331132716
 20
146.7407445147
 30
0.0
 11
151.721450014
 21
146.7407445147
 31
0.0
  0
CIRCLE
  5
87
330
1F
100
AcDbEntity
  8
0
  6
Continuous
 62
     7
370
    25
100
AcDbCircle
 10
116.1331132716
 20
115.2407445147
 30
0.0
 40
37.5
  0
CIRCLE
  5
88
330
1F
100
AcDbEntity
  8
0
  6
Continuous
 62
     7
370
    25
100
AcDbCircle
 10
116.1331132716
 20
115.2407445147
 30
0.0
 40
47.5
  0
LINE
  5
89
330
1F
100
AcDbEntity
  8
0
  6
Continuous
 62
     7
370
    25
100
AcDbLine
 10
123.1331132716
 20
191.7407445147
 30
0.0
 11
109.1331132716
 21
191.7407445147
 31
0.0
  0
LINE
  5
8A
330
1F
100
AcDbEntity
  8
0
  6
Continuous
 62
     7
370
    25
100
AcDbLine
 10
238.1331132716
 20
146.7407445147
 30
0.0
 11
238.1331132716
 21
83.7407445147
 31
0.0
  0
INSERT
  5
96
330
1F
100
AcDbEntity
  8
FORMAT
 62
     7
100
AcDbBlockReference
  2
SW_CENTERMARKSYMBOL_0
 10
116.1331132716
 20
115.2407445147
 30
0.0
  0
LINE
  5
97
330
1F
100
AcDbEntity
  8
0
  6
Continuous
 62
     7
370
    25
100
AcDbLine
 10
-214.8165486492
 20
162.7407445147
 30
0.0
 11
-215.83660393
 21
162.7407445147
 31
0.0
  0
LINE
  5
98
330
1F
100
AcDbEntity
  8
0
  6
Continuous
 62
     7
370
    25
100
AcDbLine
 10
-41.8165486492
 20
162.7407445147
 30
0.0
 11
-200.83660393
 21
162.7407445147
 31
0.0
  0
LINE
  5
99
330
1F
100
AcDbEntity
  8
0
  6
Continuous
 62
     7
370
    25
100
AcDbLine
 10
-26.83660393
 20
162.7407445147
 30
0.0
 11
-27.83660393
 21
162.7407445147
 31
0.0
  0
LINE
  5
9A
330
1F
100
AcDbEntity
  8
0
  6
Continuous
 62
     7
370
    25
100
AcDbLine
 10
-215.83660393
 20
67.7407445147
 30
0.0
 11
-26.83660393
 21
67.7407445147
 31
0.0
  0
LINE
  5
9B
330
1F
100
AcDbEntity
  8
0
  6
Continuous
 62
     7
370
    25
100
AcDbLine
 10
-27.83660393
 20
162.7407445147
 30
0.0
 11
-27.83660393
 21
191.7407445147
 31
0.0
  0
LINE
  5
9C
330
1F
100
AcDbEntity
  8
0
  6
Continuous
 62
     7
370
    25
100
AcDbLine
 10
-41.83660393
 20
191.7407445147
 30
0.0
 11
-41.83660393
 21
162.7377994938
 31
0.0
  0
LINE
  5
9D
330
1F
100
AcDbEntity
  8
0
  6
Continuous
 62
     7
370
    25
100
AcDbLine
 10
-200.83660393
 20
162.7407445147
 30
0.0
 11
-200.83660393
 21
191.7407445147
 31
0.0
  0
LINE
  5
9E
330
1F
100
AcDbEntity
  8
0
  6
Continuous
 62
     7
370
    25
100
AcDbLine
 10
-214.83660393
 20
191.7407445147
 30
0.0
 11
-214.83660393
 21
162.7377994938
 31
0.0
  0
CIRCLE
  5
9F
330
1F
100
AcDbEntity
  8
0
  6
Continuous
 62
     7
370
    25
100
AcDbCircle
 10
-121.33660393
 20
115.2407445147
 30
0.0
 40
25.7
  0
CIRCLE
  5
A0
330
1F
100
AcDbEntity
  8
0
  6
Continuous
 62
     7
370
    25
100
AcDbCircle
 10
-121.33660393
 20
115.2407445147
 30
0.0
 40
31.5
  0
LINE
  5
A1
330
1F
100
AcDbEntity
  8
0
  6
Continuous
 62
     7
370
    25
100
AcDbLine
 10
-215.83660393
 20
115.2407445147
 30
0.0
 11
-215.83660393
 21
162.7407445147
 31
0.0
  0
LINE
  5
A2
330
1F
100
AcDbEntity
  8
0
  6
Continuous
 62
     7
370
    25
100
AcDbLine
 10
-215.83660393
 20
67.7407445147
 30
0.0
 11
-215.83660393
 21
115.2407445147
 31
0.0
  0
LINE
  5
A3
330
1F
100
AcDbEntity
  8
0
  6
Continuous
 62
     7
370
    25
100
AcDbLine
 10
-26.83660393
 20
115.2407445147
 30
0.0
 11
-26.83660393
 21
162.7407445147
 31
0.0
  0
LINE
  5
A4
330
1F
100
AcDbEntity
  8
0
  6
Continuous
 62
     7
370
    25
100
AcDbLine
 10
-26.83660393
 20
67.7407445147
 30
0.0
 11
-26.83660393
 21
115.2407445147
 31
0.0
  0
SPLINE
  5
A5
330
1F
100
AcDbEntity
  8
0
  6
Continuous
 62
     7
370
    25
100
AcDbSpline
210
0.0
220
0.0
230
1.0
 70
     8
 71
     3
 72
    26
 73
    22
 74
     0
 42
0.00000001
 43
0.00000001
 40
0.0
 40
0.0
 40
0.0
 40
0.0
 40
0.052534292874072
 40
0.1066020916785307
 40
0.1591335643828935
 40
0.2131694025996682
 40
0.266051228955878
 40
0.3204515209699025
 40
0.3735665740559296
 40
0.4282432127719692
 40
0.4809694228364578
 40
0.535249526141245
 40
0.5875705803636244
 40
0.6413986863443154
 40
0.6939299037379216
 40
0.7479559796806498
 40
0.8009830330923634
 40
0.8555450911426039
 40
0.9085851926917001
 40
0.9631913054878212
 40
1.0
 40
1.0
 40
1.0
 40
1.0
 10
-200.8366039300078
 20
162.7407445147003
 30
0.0
 10
-200.8550773243322
 20
162.7380041759642
 30
0.0
 10
-200.8925633618829
 20
162.7324435064435
 30
0.0
 10
-201.1939736182225
 20
162.6888773550709
 30
0.0
 10
-201.6703107795227
 20
162.6239883345259
 30
0.0
 10
-202.3183331739016
 20
162.5432351054022
 30
0.0
 10
-203.1281115687482
 20
162.4548007788439
 30
0.0
 10
-204.0666608003527
 20
162.3696094471357
 30
0.0
 10
-205.1236610412648
 20
162.2961388416921
 30
0.0
 10
-206.2483915152082
 20
162.2442143312296
 30
0.0
 10
-207.4268589287148
 20
162.2189564737736
 30
0.0
 10
-208.6005007879695
 20
162.2234632118204
 30
0.0
 10
-209.7595929304798
 20
162.2569503563453
 30
0.0
 10
-210.8523734961747
 20
162.3148591081419
 30
0.0
 10
-211.871055512305
 20
162.3917740812458
 30
0.0
 10
-212.7722889604351
 20
162.4782273110526
 30
0.0
 10
-213.5444738049763
 20
162.5659115104168
 30
0.0
 10
-214.1531077353162
 20
162.6439384130729
 30
0.0
 10
-214.5799955884367
 20
162.7032132589841
 30
0.0
 10
-214.8125132638724
 20
162.7371812476035
 30
0.0
 10
-214.8153902245549
 20
162.7376197545198
 30
0.0
 10
-214.8165486492128
 20
162.7377963218353
 30
0.0
  0
SPLINE
  5
A6
330
1F
100
AcDbEntity
  8
0
  6
Continuous
 62
     7
370
    25
100
AcDbSpline
210
0.0
220
0.0
230
1.0
 70
     8
 71
     3
 72
    26
 73
    22
 74
     0
 42
0.00000001
 43
0.00000001
 40
0.0
 40
0.0
 40
0.0
 40
0.0
 40
0.0525342928740719
 40
0.1066020916785306
 40
0.1591335643828934
 40
0.2131694025996679
 40
0.2660512289558776
 40
0.3204515209699021
 40
0.3735665740559299
 40
0.4282432127719686
 40
0.4809694228364572
 40
0.5352495261412443
 40
0.5875705803636238
 40
0.6413986863443147
 40
0.6939299037379209
 40
0.7479559796806489
 40
0.8009830330923622
 40
0.8555450911426029
 40
0.9085851926916991
 40
0.9631913054878202
 40
1.0
 40
1.0
 40
1.0
 40
1.0
 10
-27.83660393000779
 20
162.7407445147003
 30
0.0
 10
-27.85507732433214
 20
162.7380041759642
 30
0.0
 10
-27.89256336188285
 20
162.7324435064435
 30
0.0
 10
-28.19397361822254
 20
162.6888773550709
 30
0.0
 10
-28.67031077952263
 20
162.6239883345259
 30
0.0
 10
-29.31833317390163
 20
162.5432351054022
 30
0.0
 10
-30.12811156874824
 20
162.4548007788439
 30
0.0
 10
-31.06666080035268
 20
162.3696094471357
 30
0.0
 10
-32.12366104126484
 20
162.2961388416921
 30
0.0
 10
-33.24839151520823
 20
162.2442143312296
 30
0.0
 10
-34.42685892871478
 20
162.2189564737736
 30
0.0
 10
-35.60050078796943
 20
162.2234632118204
 30
0.0
 10
-36.75959293047987
 20
162.2569503563453
 30
0.0
 10
-37.85237349617474
 20
162.3148591081419
 30
0.0
 10
-38.87105551230501
 20
162.3917740812457
 30
0.0
 10
-39.77228896043513
 20
162.4782273110526
 30
0.0
 10
-40.54447380497626
 20
162.5659115104168
 30
0.0
 10
-41.15310773531626
 20
162.6439384130729
 30
0.0
 10
-41.57999558843671
 20
162.7032132589841
 30
0.0
 10
-41.81251326387236
 20
162.7371812476035
 30
0.0
 10
-41.81539022455487
 20
162.7376197545198
 30
0.0
 10
-41.81654864921281
 20
162.7377963218353
 30
0.0
  0
LINE
  5
A7
330
1F
100
AcDbEntity
  8
0
  6
Continuous
 62
     7
370
    25
100
AcDbLine
 10
-27.83660393
 20
191.7407445147
 30
0.0
 11
-41.83660393
 21
191.7407445147
 31
0.0
  0
LINE
  5
A8
330
1F
100
AcDbEntity
  8
0
  6
Continuous
 62
     7
370
    25
100
AcDbLine
 10
-200.83660393
 20
191.7407445147
 30
0.0
 11
-214.83660393
 21
191.7407445147
 31
0.0
  0
INSERT
  5
B4
330
1F
100
AcDbEntity
  8
FORMAT
 62
     7
100
AcDbBlockReference
  2
SW_CENTERMARKSYMBOL_1
 10
-121.33660393
 20
115.2407445147
 30
0.0
  0
LINE
  5
B5
330
1F
100
AcDbEntity
  8
0
  6
Continuous
 62
     7
370
    25
100
AcDbLine
 10
163.6331132716
 20
376.0936777597
 30
0.0
 11
163.6331132716
 21
439.0936777597
 31
0.0
  0
LINE
  5
B6
330
1F
100
AcDbEntity
  8
0
  6
Continuous
 62
     7
370
    25
100
AcDbLine
 10
163.6331132716
 20
250.0936777597
 30
0.0
 11
163.6331132716
 21
313.1058179771
 31
0.0
  0
LINE
  5
B7
330
1F
100
AcDbEntity
  8
0
  6
Continuous
 62
     7
370
    25
100
AcDbLine
 10
68.6331132716
 20
439.0936777597
 30
0.0
 11
68.6331132716
 21
250.0936777597
 31
0.0
  0
LINE
  5
B8
330
1F
100
AcDbEntity
  8
0
  6
Continuous
 62
     7
370
    25
100
AcDbLine
 10
163.6250620473
 20
313.0936777597
 30
0.0
 11
238.1331132716
 21
313.0936777597
 31
0.0
  0
LINE
  5
B9
330
1F
100
AcDbEntity
  8
0
  6
Continuous
 62
     7
370
    25
100
AcDbLine
 10
238.1331132716
 20
376.0936777597
 30
0.0
 11
163.6331132716
 21
376.0936777597
 31
0.0
  0
SPLINE
  5
BA
330
1F
100
AcDbEntity
  8
0
  6
Continuous
 62
     7
370
    25
100
AcDbSpline
210
0.0
220
0.0
230
1.0
 70
     8
 71
     3
 72
    42
 73
    38
 74
     0
 42
0.00000001
 43
0.00000001
 40
0.0
 40
0.0
 40
0.0
 40
0.0
 40
0.0228421160875141
 40
0.0456848223900842
 40
0.0692639150991027
 40
0.0928447263192342
 40
0.1156658434300876
 40
0.1384887929085493
 40
0.1852356409592424
 40
0.2100394890533137
 40
0.2348448198400898
 40
0.2855036632847625
 40
0.3140411471204993
 40
0.3425762650621296
 40
0.3720210764920583
 40
0.4014584553954888
 40
0.4421761346513939
 40
0.4631048509665531
 40
0.4840316705521246
 40
0.5247907385612882
 40
0.5458409818036527
 40
0.566893475447965
 40
0.606184494196725
 40
0.6462770861070755
 40
0.6935639145201601
 40
0.7417889588563479
 40
0.7702989404869962
 40
0.7988070547683633
 40
0.828194079739831
 40
0.8575769128002189
 40
0.8804908142867629
 40
0.9034028540514203
 40
0.9269542089295195
 40
0.9505037971746231
 40
0.9734409873088415
 40
0.9963774849614625
 40
0.9999999999999999
 40
0.9999999999999999
 40
0.9999999999999999
 40
0.9999999999999999
 10
163.6331132715625
 20
376.0936777597234
 30
0.0
 10
163.6218964382777
 20
376.0768135427891
 30
0.0
 10
163.5994624818775
 20
376.0430846731676
 30
0.0
 10
163.4197771427487
 20
375.7713591985231
 30
0.0
 10
163.1315546852507
 20
375.3331257040091
 30
0.0
 10
162.7333219020314
 20
374.7212123847895
 30
0.0
 10
162.2423661742834
 20
373.9569882500722
 30
0.0
 10
161.4742515823069
 20
372.7406850719667
 30
0.0
 10
160.5334855159506
 20
371.20662748789
 30
0.0
 10
159.4654203741787
 20
369.3764521467697
 30
0.0
 10
158.2971890269409
 20
367.2920105735572
 30
0.0
 10
157.0272188119847
 20
364.8585384829384
 30
0.0
 10
155.7343578207677
 20
362.076940489677
 30
0.0
 10
154.7383240960429
 20
359.6958187638589
 30
0.0
 10
153.8090879014738
 20
357.1451809382773
 30
0.0
 10
152.8843842300224
 20
354.0838781632729
 30
0.0
 10
152.2367334508272
 20
351.1266246248373
 30
0.0
 10
151.8649735668688
 20
348.3631301075608
 30
0.0
 10
151.6504258173266
 20
345.5595488877058
 30
0.0
 10
151.6871330869204
 20
342.7191716273905
 30
0.0
 10
151.9715612530862
 20
339.9215757937604
 30
0.0
 10
152.4015050233246
 20
337.2199273537648
 30
0.0
 10
153.1745876563156
 20
333.9974707213768
 30
0.0
 10
154.4398283463157
 20
330.1861272251181
 30
0.0
 10
156.0077001325636
 20
326.4358660009622
 30
0.0
 10
157.5223144574263
 20
323.3619610055239
 30
0.0
 10
158.7830100961425
 20
321.0184557479846
 30
0.0
 10
159.7791601011837
 20
319.2640695527332
 30
0.0
 10
160.7186893592199
 20
317.6797660252763
 30
0.0
 10
161.5122971378549
 20
316.3885744315363
 30
0.0
 10
162.1521557636124
 20
315.3720517788346
 30
0.0
 10
162.6594107718415
 20
314.5804776418808
 30
0.0
 10
163.0732441526882
 20
313.9433423463441
 30
0.0
 10
163.3839725529273
 20
313.4703012089232
 30
0.0
 10
163.567114456722
 20
313.1930320550549
 30
0.0
 10
163.6465905070753
 20
313.0733707501694
 30
0.0
 10
163.6276431227153
 20
313.1019235232646
 30
0.0
 10
163.6250587952938
 20
313.1058179771411
 30
0.0
  0
LINE
  5
BB
330
1F
100
AcDbEntity
  8
0
  6
Continuous
 62
     7
370
    25
100
AcDbLine
 10
68.6331132716
 20
439.0936777597
 30
0.0
 11
163.6331132716
 21
439.0936777597
 31
0.0
  0
LINE
  5
BC
330
1F
100
AcDbEntity
  8
0
  6
Continuous
 62
     7
370
    25
100
AcDbLine
 10
68.6331132716
 20
250.0936777597
 30
0.0
 11
163.6331132716
 21
250.0936777597
 31
0.0
  0
LINE
  5
BD
330
1F
100
AcDbEntity
  8
0
  6
Continuous
 62
     7
370
    25
100
AcDbLine
 10
238.1331132716
 20
376.0936777597
 30
0.0
 11
238.1331132716
 21
313.0936777597
 31
0.0
  0
LINE
  5
BE
330
1F
100
AcDbEntity
  8
0
  6
Continuous
 62
     7
370
    25
100
AcDbLine
 10
296.2448140816
 20
67.7407445147
 30
0.0
 11
485.2448140816
 21
67.7407445147
 31
0.0
  0
LINE
  5
BF
330
1F
100
AcDbEntity
  8
0
  6
Continuous
 62
     7
370
    25
100
AcDbLine
 10
297.2448140816
 20
162.7407445147
 30
0.0
 11
296.2448140816
 21
162.7407445147
 31
0.0
  0
LINE
  5
C0
330
1F
100
AcDbEntity
  8
0
  6
Continuous
 62
     7
370
    25
100
AcDbLine
 10
470.2448140816
 20
162.7407445147
 30
0.0
 11
311.2247588008
 21
162.7407445147
 31
0.0
  0
LINE
  5
C1
330
1F
100
AcDbEntity
  8
0
  6
Continuous
 62
     7
370
    25
100
AcDbLine
 10
485.2448140816
 20
162.7407445147
 30
0.0
 11
484.2247588008
 21
162.7407445147
 31
0.0
  0
LINE
  5
C2
330
1F
100
AcDbEntity
  8
0
  6
Continuous
 62
     7
370
    25
100
AcDbLine
 10
311.2448140816
 20
162.7377994938
 30
0.0
 11
311.2448140816
 21
191.7407445147
 31
0.0
  0
LINE
  5
C3
330
1F
100
AcDbEntity
  8
0
  6
Continuous
 62
     7
370
    25
100
AcDbLine
 10
297.2448140816
 20
191.7407445147
 30
0.0
 11
297.2448140816
 21
162.7407445147
 31
0.0
  0
LINE
  5
C4
330
1F
100
AcDbEntity
  8
0
  6
Continuous
 62
     7
370
    25
100
AcDbLine
 10
484.2448140816
 20
162.7377994938
 30
0.0
 11
484.2448140816
 21
191.7407445147
 31
0.0
  0
LINE
  5
C5
330
1F
100
AcDbEntity
  8
0
  6
Continuous
 62
     7
370
    25
100
AcDbLine
 10
470.2448140816
 20
191.7407445147
 30
0.0
 11
470.2448140816
 21
162.7407445147
 31
0.0
  0
LINE
  5
C6
330
1F
100
AcDbEntity
  8
0
  6
Continuous
 62
     7
370
    25
100
AcDbLine
 10
485.2448140816
 20
162.7407445147
 30
0.0
 11
485.2448140816
 21
67.7407445147
 31
0.0
  0
LINE
  5
C7
330
1F
100
AcDbEntity
  8
0
  6
Continuous
 62
     7
370
    25
100
AcDbLine
 10
296.2448140816
 20
162.7407445147
 30
0.0
 11
296.2448140816
 21
67.7407445147
 31
0.0
  0
SPLINE
  5
C8
330
1F
100
AcDbEntity
  8
0
  6
Continuous
 62
     7
370
    25
100
AcDbSpline
210
0.0
220
0.0
230
1.0
 70
     8
 71
     3
 72
    26
 73
    22
 74
     0
 42
0.00000001
 43
0.00000001
 40
0.0
 40
0.0
 40
0.0
 40
0.0
 40
0.0157462028048526
 40
0.0698417494472365
 40
0.1221715240062861
 40
0.1759988559773452
 40
0.2287015860781941
 40
0.2829084575728387
 40
0.336017345730802
 40
0.3906758000504891
 40
0.4435887154121377
 40
0.4980657705789773
 40
0.550476737436427
 40
0.6044108188968218
 40
0.656800631706339
 40
0.7106825623096346
 40
0.7635599824037883
 40
0.8179553096785127
 40
0.8710736569686737
 40
0.9257531215792384
 40
1.0
 40
1.0
 40
1.0
 40
1.0
 10
484.2247588008143
 20
162.7377963218353
 30
0.0
 10
484.230507058214
 20
162.7386412108265
 30
0.0
 10
484.2560032593012
 20
162.7423886873431
 30
0.0
 10
484.1026309317783
 20
162.7197726739541
 30
0.0
 10
483.7632159570365
 20
162.671541907325
 30
0.0
 10
483.2325305965471
 20
162.6008306600725
 30
0.0
 10
482.532193471112
 20
162.516638614588
 30
0.0
 10
481.6858362337999
 20
162.428605733524
 30
0.0
 10
480.703071725211
 20
162.3454713901251
 30
0.0
 10
479.6285959157559
 20
162.278134098222
 30
0.0
 10
478.476268949744
 20
162.2334181072805
 30
0.0
 10
477.3038477152079
 20
162.217198894124
 30
0.0
 10
476.1229486232344
 20
162.2307347519235
 30
0.0
 10
474.988647723546
 20
162.2718974381774
 30
0.0
 10
473.908534874718
 20
162.3366742922565
 30
0.0
 10
472.9283994848789
 20
162.4169827305946
 30
0.0
 10
472.0584900771177
 20
162.5052875476308
 30
0.0
 10
471.3370131543497
 20
162.5907203631739
 30
0.0
 10
470.7803673482773
 20
162.6639940436449
 30
0.0
 10
470.344090560717
 20
162.7259041095681
 30
0.0
 10
470.2810933147763
 20
162.7353212913656
 30
0.0
 10
470.2448140816093
 20
162.7407445147003
 30
0.0
  0
SPLINE
  5
C9
330
1F
100
AcDbEntity
  8
0
  6
Continuous
 62
     7
370
    25
100
AcDbSpline
210
0.0
220
0.0
230
1.0
 70
     8
 71
     3
 72
    26
 73
    22
 74
     0
 42
0.00000001
 43
0.00000001
 40
0.0
 40
0.0
 40
0.0
 40
0.0
 40
0.0157462028048517
 40
0.0698417494472357
 40
0.1221715240062853
 40
0.1759988559773444
 40
0.2287015860781933
 40
0.2829084575728374
 40
0.3360173457308007
 40
0.3906758000504886
 40
0.4435887154121372
 40
0.4980657705789762
 40
0.5504767374364259
 40
0.6044108188968214
 40
0.6568006317063385
 40
0.7106825623096342
 40
0.7635599824037873
 40
0.8179553096785126
 40
0.8710736569686736
 40
0.9257531215792383
 40
1.0
 40
1.0
 40
1.0
 40
1.0
 10
311.2247588008143
 20
162.7377963218353
 30
0.0
 10
311.230507058214
 20
162.7386412108265
 30
0.0
 10
311.2560032593012
 20
162.7423886873431
 30
0.0
 10
311.1026309317783
 20
162.7197726739541
 30
0.0
 10
310.7632159570365
 20
162.671541907325
 30
0.0
 10
310.2325305965472
 20
162.6008306600725
 30
0.0
 10
309.532193471112
 20
162.516638614588
 30
0.0
 10
308.6858362338
 20
162.428605733524
 30
0.0
 10
307.703071725211
 20
162.3454713901251
 30
0.0
 10
306.6285959157559
 20
162.278134098222
 30
0.0
 10
305.476268949744
 20
162.2334181072805
 30
0.0
 10
304.3038477152079
 20
162.217198894124
 30
0.0
 10
303.1229486232345
 20
162.2307347519235
 30
0.0
 10
301.988647723546
 20
162.2718974381774
 30
0.0
 10
300.908534874718
 20
162.3366742922565
 30
0.0
 10
299.9283994848788
 20
162.4169827305946
 30
0.0
 10
299.0584900771177
 20
162.5052875476308
 30
0.0
 10
298.3370131543497
 20
162.5907203631739
 30
0.0
 10
297.7803673482773
 20
162.6639940436449
 30
0.0
 10
297.3440905607171
 20
162.7259041095681
 30
0.0
 10
297.2810933147763
 20
162.7353212913656
 30
0.0
 10
297.2448140816093
 20
162.7407445147003
 30
0.0
  0
LINE
  5
CA
330
1F
100
AcDbEntity
  8
0
  6
Continuous
 62
     7
370
    25
100
AcDbLine
 10
311.2448140816
 20
191.7407445147
 30
0.0
 11
297.2448140816
 21
191.7407445147
 31
0.0
  0
LINE
  5
CB
330
1F
100
AcDbEntity
  8
0
  6
Continuous
 62
     7
370
    25
100
AcDbLine
 10
484.2448140816
 20
191.7407445147
 30
0.0
 11
470.2448140816
 21
191.7407445147
 31
0.0
  0
LINE
  5
CC
330
1F
100
AcDbEntity
  8
0
  6
Continuous
 62
     7
370
    25
100
AcDbLine
 10
68.6331132716
 20
17.5465883829
 30
0.0
 11
68.6331132716
 21
-171.4534116171
 31
0.0
  0
LINE
  5
CD
330
1F
100
AcDbEntity
  8
0
  6
Continuous
 62
     7
370
    25
100
AcDbLine
 10
163.6331132716
 20
-45.4655518345
 30
0.0
 11
163.6331132716
 21
17.5465883829
 31
0.0
  0
LINE
  5
CE
330
1F
100
AcDbEntity
  8
0
  6
Continuous
 62
     7
370
    25
100
AcDbLine
 10
163.6331132716
 20
-171.4534116171
 30
0.0
 11
163.6331132716
 21
-108.4534116171
 31
0.0
  0
LINE
  5
CF
330
1F
100
AcDbEntity
  8
0
  6
Continuous
 62
     7
370
    25
100
AcDbLine
 10
163.6331132716
 20
-108.4534116171
 30
0.0
 11
238.1331132716
 21
-108.4534116171
 31
0.0
  0
LINE
  5
D0
330
1F
100
AcDbEntity
  8
0
  6
Continuous
 62
     7
370
    25
100
AcDbLine
 10
238.1331132716
 20
-45.4534116171
 30
0.0
 11
163.6250620473
 21
-45.4534116171
 31
0.0
  0
CIRCLE
  5
D1
330
1F
100
AcDbEntity
  8
0
  6
Continuous
 62
     7
370
    25
100
AcDbCircle
 10
116.1331132716
 20
9.5465883829
 30
0.0
 40
7.00000000000002
  0
CIRCLE
  5
D2
330
1F
100
AcDbEntity
  8
0
  6
Continuous
 62
     7
370
    25
100
AcDbCircle
 10
116.1331132716
 20
9.5465883829
 30
0.0
 40
5.000000000000004
  0
CIRCLE
  5
D3
330
1F
100
AcDbEntity
  8
0
  6
Continuous
 62
     7
370
    25
100
AcDbCircle
 10
116.1331132716
 20
-163.4534116171
 30
0.0
 40
5.0
  0
CIRCLE
  5
D4
330
1F
100
AcDbEntity
  8
0
  6
Continuous
 62
     7
370
    25
100
AcDbCircle
 10
116.1331132716
 20
-163.4534116171
 30
0.0
 40
7.000000000000028
  0
LWPOLYLINE
  5
D5
330
1F
100
AcDbEntity
  8
0
  6
Continuous
 62
     7
370
    25
100
AcDbPolyline
 90
       35
 70
   128
 43
0.0
 10
163.6250587953
 20
-45.4655518345
 10
163.5884291694
 20
-45.5207566939
 10
163.4229755639
 20
-45.771187905
 10
162.8267195702
 20
-46.6830817681
 10
161.8626928609
 20
-48.1924232923
 10
160.5604422936
 20
-50.3115730164
 10
159.0077091772
 20
-52.9902946648
 10
158.0680878695
 20
-54.7150060871
 10
157.1101444983
 20
-56.5789892165
 10
156.1323292001
 20
-58.6246847857
 10
155.182138236
 20
-60.8032924017
 10
154.3856171804
 20
-62.8376829369
 10
153.6519572736
 20
-64.9674341749
 10
152.9873366841
 20
-67.246615805
 10
152.4362810714
 20
-69.6103882408
 10
151.8484754011
 20
-73.5494298243
 10
151.6936820896
 20
-77.6977601001
 10
152.0030954565
 20
-81.7132038339
 10
152.7476881463
 20
-85.7071018823
 10
153.3854405568
 20
-88.0767197801
 10
154.1264716425
 20
-90.3509964853
 10
154.9691227281
 20
-92.5815174491
 10
155.867567871
 20
-94.6967732579
 10
156.79100868
 20
-96.6782380193
 10
157.7241973587
 20
-98.5362352401
 10
158.6674030156
 20
-100.3022882294
 10
159.579766218
 20
-101.9256292249
 10
160.5251879781
 20
-103.5365226835
 10
161.3850559382
 20
-104.9487382826
 10
162.1608198977
 20
-106.1862271001
 10
162.7937237319
 20
-107.1728187676
 10
163.4124463473
 20
-108.119664778
 10
163.577448602
 20
-108.3694709787
 10
163.6331132716
 20
-108.4534116171
 10
163.6331132716
 20
-108.4534116171
  0
LINE
  5
D6
330
1F
100
AcDbEntity
  8
0
  6
Continuous
 62
     7
370
    25
100
AcDbLine
 10
163.6331132716
 20
-171.4534116171
 30
0.0
 11
68.6331132716
 21
-171.4534116171
 31
0.0
  0
LINE
  5
D7
330
1F
100
AcDbEntity
  8
0
  6
Continuous
 62
     7
370
    25
100
AcDbLine
 10
163.6331132716
 20
17.5465883829
 30
0.0
 11
68.6331132716
 21
17.5465883829
 31
0.0
  0
LINE
  5
D8
330
1F
100
AcDbEntity
  8
0
  6
Continuous
 62
     7
370
    25
100
AcDbLine
 10
238.1331132716
 20
-45.4534116171
 30
0.0
 11
238.1331132716
 21
-108.4534116171
 31
0.0
  0
INSERT
  5
E4
330
1F
100
AcDbEntity
  8
FORMAT
 62
     7
100
AcDbBlockReference
  2
SW_CENTERMARKSYMBOL_2
 10
116.1331132716
 20
-163.4534116171
 30
0.0
  0
INSERT
  5
F0
330
1F
100
AcDbEntity
  8
FORMAT
 62
     7
100
AcDbBlockReference
  2
SW_CENTERMARKSYMBOL_3
 10
116.1331132716
 20
9.5465883829
 30
0.0
  0
LINE
  5
F1
330
1F
100
AcDbEntity
  8
0
  6
Continuous
 62
     7
370
    25
100
AcDbLine
 10
472.2743184959
 20
-80.3719213989
 30
0.0
 11
460.7110784172
 21
-73.6966049896
 31
0.0
  0
LINE
  5
F2
330
1F
100
AcDbEntity
  8
0
  6
Continuous
 62
     7
370
    25
100
AcDbLine
 10
397.7059581571
 20
-37.324523265
 30
0.0
 11
338.6311368516
 21
-3.2213548317
 31
0.0
  0
LINE
  5
F3
330
1F
100
AcDbEntity
  8
0
  6
Continuous
 62
     7
370
    25
100
AcDbLine
 10
291.1349970514
 20
-85.4959967578
 30
0.0
 11
424.7781786956
 21
-162.6465633251
 31
0.0
  0
LINE
  5
F4
330
1F
100
AcDbEntity
  8
0
  6
Continuous
 62
     7
370
    25
100
AcDbLine
 10
427.114450091
 20
-93.0915256898
 30
0.0
 11
483.7204051174
 21
-60.4136034222
 31
0.0
  0
LINE
  5
F5
330
1F
100
AcDbEntity
  8
0
  6
Continuous
 62
     7
370
    25
100
AcDbLine
 10
452.2229650394
 20
-5.8525250922
 30
0.0
 11
395.6188548751
 21
-38.5293823436
 31
0.0
  0
LINE
  5
F6
330
1F
100
AcDbEntity
  8
0
  6
Continuous
 62
     7
370
    25
100
AcDbLine
 10
327.539921201
 20
-1.1255505122
 30
0.0
 11
327.539921201
 21
14.8410638672
 31
0.0
  0
LINE
  5
F7
330
1F
100
AcDbEntity
  8
0
  6
Continuous
 62
     7
370
    25
100
AcDbLine
 10
313.539921201
 20
14.8410638672
 30
0.0
 11
313.539921201
 21
-6.3793932325
 31
0.0
  0
SPLINE
  5
F8
330
1F
100
AcDbEntity
  8
0
  6
Continuous
 62
     7
370
    25
100
AcDbSpline
210
0.0
220
0.0
230
1.0
 70
     8
 71
     3
 72
    30
 73
    26
 74
     0
 42
0.00000001
 43
0.00000001
 40
0.0
 40
0.0
 40
0.0
 40
0.0
 40
0.0411457508931133
 40
0.0824437427679443
 40
0.1236064601820987
 40
0.1645759737149503
 40
0.2056690370806596
 40
0.2466654612334674
 40
0.2911404683095894
 40
0.335729299971141
 40
0.3802184366944525
 40
0.4316497637970425
 40
0.4832366900502377
 40
0.5345992811352756
 40
0.5712371397135902
 40
0.607971216606737
 40
0.6445764220095795
 40
0.6813138521714418
 40
0.718186960882653
 40
0.7549429235109009
 40
0.807782440331457
 40
0.8606613059041374
 40
0.9242510071946651
 40
0.9878603992959728
 40
1.0
 40
1.0
 40
1.0
 40
1.0
 10
393.0183662726072
 20
-50.68583866137732
 30
0.0
 10
393.0257533492753
 20
-51.56883131853594
 30
0.0
 10
393.040554835101
 20
-53.33808374224012
 30
0.0
 10
393.1589767819399
 20
-56.22245167787065
 30
0.0
 10
393.3481136286032
 20
-59.21606477062487
 30
0.0
 10
393.6170032025074
 20
-62.29751581371747
 30
0.0
 10
393.96554400528
 20
-65.41683520582532
 30
0.0
 10
394.4118617550458
 20
-68.63392002739725
 30
0.0
 10
394.9714215000818
 20
-71.91419940359769
 30
0.0
 10
395.6671114545363
 20
-75.21967066488205
 30
0.0
 10
396.5439576680449
 20
-78.59807990126663
 30
0.0
 10
397.6531641540793
 20
-81.99432862596353
 30
0.0
 10
399.0691635903038
 20
-85.32716305676097
 30
0.0
 10
400.6214500900568
 20
-88.08422519473439
 30
0.0
 10
402.2538387821052
 20
-90.28525074838416
 30
0.0
 10
403.8776218466253
 20
-92.00556454735685
 30
0.0
 10
405.6857223778763
 20
-93.4755636775658
 30
0.0
 10
407.6797045615037
 20
-94.64864792750721
 30
0.0
 10
409.8177254107666
 20
-95.52318527419862
 30
0.0
 10
412.3902234236507
 20
-96.17695540675689
 30
0.0
 10
415.4001961703042
 20
-96.4279109497082
 30
0.0
 10
419.0067417459526
 20
-96.14147397783124
 30
0.0
 10
422.7349789671283
 20
-95.16860627307322
 30
0.0
 10
425.5290678901934
 20
-94.05988904501305
 30
0.0
 10
426.8778198468294
 20
-93.19595163472022
 30
0.0
 10
427.0939720304552
 20
-93.05749625985895
 30
0.0
  0
SPLINE
  5
F9
330
1F
100
AcDbEntity
  8
0
  6
Continuous
 62
     7
370
    25
100
AcDbSpline
210
0.0
220
0.0
230
1.0
 70
     8
 71
     3
 72
    15
 73
    11
 74
     0
 42
0.00000001
 43
0.00000001
 40
0.0
 40
0.0
 40
0.0
 40
0.0
 40
0.0318674038150759
 40
0.170990304159859
 40
0.3287437253880939
 40
0.487069578145682
 40
0.6446167540053548
 40
0.7629725547411449
 40
0.8816849849554581
 40
1.0
 40
1.0
 40
1.0
 40
1.0
 10
395.6341825721432
 20
-38.55697928602509
 30
0.0
 10
395.5706025822607
 20
-38.58276873021801
 30
0.0
 10
395.2294526764954
 20
-38.72114664554017
 30
0.0
 10
394.7262859368155
 20
-39.31852954791208
 30
0.0
 10
394.1221117477608
 20
-40.44506692933445
 30
0.0
 10
393.6517809375582
 20
-42.1022073655292
 30
0.0
 10
393.3370736139493
 20
-44.03677174507458
 30
0.0
 10
393.146149166696
 20
-46.14820014122358
 30
0.0
 10
393.0385071923984
 20
-48.27812060762337
 30
0.0
 10
393.0250724039996
 20
-49.88416357444938
 30
0.0
 10
393.0183662726072
 20
-50.68583866137732
 30
0.0
  0
LWPOLYLINE
  5
FA
330
1F
100
AcDbEntity
  8
0
  6
Continuous
 62
     7
370
    25
100
AcDbPolyline
 90
       99
 70
   128
 43
0.0
 10
348.4706390579
 20
-24.968983139
 10
348.4016297887
 20
-22.5238137436
 10
348.1948855552
 20
-20.16836848
 10
347.8512559136
 20
-17.912326378
 10
347.3721529119
 20
-15.7649579984
 10
346.7595452872
 20
-13.7350873386
 10
346.0159503754
 20
-11.8310555725
 10
345.1444237678
 20
-10.060686775
 10
344.1485467539
 20
-8.4312557714
 10
343.032411606
 20
-6.949458243
 10
341.800604763
 20
-5.6213832137
 10
340.4581879833
 20
-4.4524880289
 10
339.0106775455
 20
-3.4475759294
 10
337.4640215803
 20
-2.6107763146
 10
335.824575629
 20
-1.9455277737
 10
334.0990765266
 20
-1.4545639556
 10
332.294614719
 20
-1.139902336
 10
330.4186051269
 20
-1.0028359269
 10
328.4787566761
 20
-1.0439279636
 10
326.4830406199
 20
-1.2630095902
 10
324.4396577837
 20
-1.6591805531
 10
322.3570048659
 20
-2.2308129011
 10
320.2436399341
 20
-2.975557674
 10
318.108247258
 20
-3.890354556
 10
315.9596016243
 20
-4.9714444504
 10
313.8065322787
 20
-6.2143849269
 10
311.6578866449
 20
-7.6140684765
 10
309.5224939689
 20
-9.1647434992
 10
307.4091290371
 20
-10.8600379388
 10
305.3264761193
 20
-12.6929854669
 10
303.2830932831
 20
-14.6560541087
 10
301.2873772269
 20
-16.7411771943
 10
299.3475287761
 20
-18.9397865055
 10
297.471519184
 20
-21.2428474852
 10
295.6670573764
 20
-23.6408963617
 10
293.941558274
 20
-26.1240790378
 10
292.3021123227
 20
-28.6821915834
 10
290.7554563575
 20
-31.3047221651
 10
289.3079459197
 20
-33.9808942424
 10
287.96552914
 20
-36.6997108501
 10
286.733722297
 20
-39.4499997876
 10
285.6175871491
 20
-42.2204595278
 10
284.6217101352
 20
-44.9997056572
 10
283.7501835275
 20
-47.7763176574
 10
283.0065886158
 20
-50.5388858341
 10
282.3939809911
 20
-53.2760582021
 10
281.9148779894
 20
-55.976587133
 10
281.5712483478
 20
-58.6293755742
 10
281.3645041143
 20
-61.223522649
 10
281.2954948451
 20
-63.7483684505
 10
281.3645041143
 20
-66.1935378459
 10
281.5712483478
 20
-68.5489831095
 10
281.9148779894
 20
-70.8050252115
 10
282.3939809911
 20
-72.9523935911
 10
283.0065886158
 20
-74.9822642509
 10
283.7501835275
 20
-76.886296017
 10
284.6217101352
 20
-78.6566648145
 10
285.6175871491
 20
-80.2860958181
 10
286.733722297
 20
-81.7678933465
 10
287.96552914
 20
-83.0959683758
 10
289.3079459197
 20
-84.2648635606
 10
290.7554563575
 20
-85.2697756601
 10
292.3021123227
 20
-86.1065752749
 10
293.941558274
 20
-86.7718238158
 10
295.6670573764
 20
-87.2627876339
 10
297.471519184
 20
-87.5774492535
 10
299.3475287761
 20
-87.7145156626
 10
301.2873772269
 20
-87.6734236259
 10
303.2830932831
 20
-87.4543419993
 10
305.3264761193
 20
-87.0581710364
 10
307.4091290371
 20
-86.4865386884
 10
309.5224939689
 20
-85.7417939155
 10
311.6578866449
 20
-84.8269970335
 10
313.8065322787
 20
-83.7459071391
 10
315.9596016243
 20
-82.5029666626
 10
318.108247258
 20
-81.1032831131
 10
320.2436399341
 20
-79.5526080903
 10
322.3570048659
 20
-77.8573136507
 10
324.4396577837
 20
-76.0243661226
 10
326.4830406199
 20
-74.0612974808
 10
328.4787566761
 20
-71.9761743952
 10
330.4186051269
 20
-69.777565084
 10
332.294614719
 20
-67.4745041043
 10
334.0990765266
 20
-65.0764552278
 10
335.824575629
 20
-62.5932725517
 10
337.4640215803
 20
-60.0351600061
 10
339.0106775455
 20
-57.4126294244
 10
340.4581879833
 20
-54.7364573471
 10
341.800604763
 20
-52.0176407394
 10
343.032411606
 20
-49.2673518019
 10
344.1485467539
 20
-46.4968920618
 10
345.1444237678
 20
-43.7176459323
 10
346.0159503754
 20
-40.9410339321
 10
346.7595452872
 20
-38.1784657554
 10
347.3721529119
 20
-35.4412933874
 10
347.8512559136
 20
-32.7407644565
 10
348.1948855552
 20
-30.0879760153
 10
348.4016297887
 20
-27.4938289405
 10
348.4706390579
 20
-24.968983139
  0
LWPOLYLINE
  5
FB
330
1F
100
AcDbEntity
  8
0
  6
Continuous
 62
     7
370
    25
100
AcDbPolyline
 90
       14
 70
   128
 43
0.0
 10
482.1138207021
 20
-102.1195497062
 10
482.044811433
 20
-99.6743803109
 10
481.8380671994
 20
-97.3189350473
 10
481.4944375578
 20
-95.0628929452
 10
481.0153345562
 20
-92.9155245657
 10
480.4027269314
 20
-90.8856539058
 10
479.6591320197
 20
-88.9816221397
 10
478.787605412
 20
-87.2112533423
 10
477.7917283981
 20
-85.5818223386
 10
476.6755932503
 20
-84.1000248102
 10
475.4437864073
 20
-82.771949781
 10
474.1013696276
 20
-81.6030545961
 10
472.6538591897
 20
-80.5981424966
 10
472.2743184959
 20
-80.3719213989
  0
LWPOLYLINE
  5
FC
330
1F
100
AcDbEntity
  8
0
  6
Continuous
 62
     7
370
    25
100
AcDbPolyline
 90
       38
 70
   128
 43
0.0
 10
424.7781786956
 20
-162.6465633251
 10
425.9452939669
 20
-163.2571418421
 10
427.5847399182
 20
-163.922390383
 10
429.3102390206
 20
-164.4133542011
 10
431.1147008282
 20
-164.7280158208
 10
432.9907104203
 20
-164.8650822299
 10
434.9305588712
 20
-164.8239901931
 10
436.9262749274
 20
-164.6049085666
 10
438.9696577635
 20
-164.2087376036
 10
441.0523106813
 20
-163.6371052557
 10
443.1656756132
 20
-162.8923604827
 10
445.3010682892
 20
-161.9775636008
 10
447.4497139229
 20
-160.8964737064
 10
449.6027832686
 20
-159.6535332299
 10
451.7514289023
 20
-158.2538496803
 10
453.8868215784
 20
-156.7031746575
 10
456.0001865102
 20
-155.0078802179
 10
458.082839428
 20
-153.1749326899
 10
460.1262222641
 20
-151.211864048
 10
462.1219383203
 20
-149.1267409625
 10
464.0617867712
 20
-146.9281316512
 10
465.9377963633
 20
-144.6250706716
 10
467.7422581709
 20
-142.2270217951
 10
469.4677572733
 20
-139.7438391189
 10
471.1072032246
 20
-137.1857265734
 10
472.6538591897
 20
-134.5631959916
 10
474.1013696276
 20
-131.8870239143
 10
475.4437864073
 20
-129.1682073066
 10
476.6755932503
 20
-126.4179183691
 10
477.7917283981
 20
-123.647458629
 10
478.787605412
 20
-120.8682124996
 10
479.6591320197
 20
-118.0916004994
 10
480.4027269314
 20
-115.3290323227
 10
481.0153345562
 20
-112.5918599546
 10
481.4944375578
 20
-109.8913310237
 10
481.8380671994
 20
-107.2385425825
 10
482.044811433
 20
-104.6443955077
 10
482.1138207021
 20
-102.1195497062
  0
LWPOLYLINE
  5
FD
330
1F
100
AcDbEntity
  8
0
  6
Continuous
 62
     7
370
    25
100
AcDbPolyline
 90
       88
 70
   128
 43
0.0
 10
341.399571246
 20
-29.0510236981
 10
341.3304488583
 20
-26.8814364841
 10
341.1234420675
 20
-24.8029675034
 10
340.7796301111
 20
-22.8264529307
 10
340.3008054654
 20
-20.9621973978
 10
339.6894645003
 20
-19.2199202698
 10
338.9487944648
 20
-17.6087049731
 10
338.0826568692
 20
-16.1369516379
 10
337.0955673541
 20
-14.8123333049
 10
335.9926721471
 20
-13.6417559206
 10
334.7797212331
 20
-12.6313223335
 10
333.4630383765
 20
-11.7863004764
 10
332.0494881521
 20
-11.1110959021
 10
330.5464401562
 20
-10.6092288145
 10
328.9617305852
 20
-10.2833157162
 10
327.3036213809
 20
-10.1350557673
 10
325.5807571569
 20
-10.1652219264
 10
323.8021201297
 20
-10.3736569212
 10
321.976983289
 20
-10.7592740681
 10
320.1148620533
 20
-11.3200629379
 10
318.2254646604
 20
-12.0530998371
 10
316.3186415535
 20
-12.9545630507
 10
314.4043340254
 20
-14.0197527669
 10
312.492522389
 20
-15.2431155797
 10
310.5931739451
 20
-16.618273442
 10
308.716191017
 20
-18.1380569173
 10
306.8713593245
 20
-19.7945425584
 10
305.0682969659
 20
-21.5790942161
 10
303.3164042733
 20
-23.4824080643
 10
301.6248148042
 20
-25.4945611061
 10
300.0023477228
 20
-27.6050629071
 10
298.4574618211
 20
-29.8029102881
 10
296.9982114189
 20
-32.0766446907
 10
295.6322043721
 20
-34.4144119164
 10
294.366562409
 20
-36.8040239294
 10
293.2078840007
 20
-39.2330223992
 10
292.1622099599
 20
-41.6887436524
 10
291.2349919469
 20
-44.1583846956
 10
290.431064047
 20
-46.6290699638
 10
289.7546175681
 20
-49.087918448
 10
289.209179189
 20
-51.5221108509
 10
288.7975925727
 20
-53.9189564203
 10
288.5220035413
 20
-56.2659591133
 10
288.3838488884
 20
-58.5508827446
 10
288.3838488884
 20
-60.7618147803
 10
288.5220035413
 20
-62.8872284446
 10
288.7975925727
 20
-64.9160428148
 10
289.209179189
 20
-66.8376805921
 10
289.7546175681
 20
-68.642123247
 10
290.431064047
 20
-70.319963251
 10
291.2349919469
 20
-71.8624531232
 10
292.1622099599
 20
-73.2615510357
 10
293.2078840007
 20
-74.5099627397
 10
294.366562409
 20
-75.6011795947
 10
295.6322043721
 20
-76.5295125013
 10
296.9982114189
 20
-77.2901215616
 10
298.4574618211
 20
-77.8790413121
 10
300.0023477228
 20
-78.2932013979
 10
301.6248148042
 20
-78.5304425801
 10
303.3164042733
 20
-78.589527993
 10
305.0682969659
 20
-78.4701495927
 10
306.8713593245
 20
-78.1729297629
 10
308.716191017
 20
-77.6994180701
 10
310.5931739451
 20
-77.052083185
 10
312.492522389
 20
-76.234300012
 10
314.4043340254
 20
-75.2503320939
 10
316.3186415535
 20
-74.1053093838
 10
318.2254646604
 20
-72.8052014999
 10
320.1148620533
 20
-71.3567866028
 10
321.976983289
 20
-69.7676160569
 10
323.8021201297
 20
-68.0459750619
 10
325.5807571569
 20
-66.2008394565
 10
327.3036213809
 20
-64.2418289235
 10
328.9617305852
 20
-62.1791568367
 10
330.5464401562
 20
-60.0235770132
 10
332.0494881521
 20
-57.7863276482
 10
333.4630383765
 20
-55.479072724
 10
334.7797212331
 20
-53.1138411993
 10
335.9926721471
 20
-50.7029642961
 10
337.0955673541
 20
-48.2590112103
 10
338.0826568692
 20
-45.7947235817
 10
338.9487944648
 20
-43.3229490648
 10
339.6894645003
 20
-40.8565743475
 10
340.3008054654
 20
-38.4084579656
 10
340.7796301111
 20
-35.9913632643
 10
341.1234420675
 20
-33.6178918561
 10
341.3304488583
 20
-31.300417922
 10
341.399571246
 20
-29.0510236981
  0
LWPOLYLINE
  5
FE
330
1F
100
AcDbEntity
  8
0
  6
Continuous
 62
     7
370
    25
100
AcDbPolyline
 90
       81
 70
   128
 43
0.0
 10
490.2455486858
 20
-45.9914920184
 10
490.1768857978
 20
-43.9338045845
 10
489.9713204634
 20
-41.809526995
 10
489.6301200612
 20
-39.6317561274
 10
489.1553882052
 20
-37.4139186634
 10
488.5500517752
 20
-35.1696883084
 10
487.8178428714
 20
-32.912901489
 10
486.9632758054
 20
-30.6574720462
 10
485.9916192671
 20
-28.4173054526
 10
484.9088638424
 20
-26.2062130802
 10
483.7216850784
 20
-24.0378270487
 10
482.437402327
 20
-21.9255161791
 10
481.0639336184
 20
-19.8823035703
 10
479.6097468439
 20
-17.9207863074
 10
478.0838075486
 20
-16.0530577967
 10
476.4955236557
 20
-14.2906332055
 10
474.8546874635
 20
-12.6443784675
 10
473.1714152727
 20
-11.1244432905
 10
471.4560850162
 20
-9.7401985804
 10
469.7192722754
 20
-8.5001786661
 10
467.9716850784
 20
-7.4120286828
 10
466.2240978814
 20
-6.4824574369
 10
464.4872851406
 20
-5.7171960442
 10
462.7719548841
 20
-5.1209625958
 10
461.0886826933
 20
-4.6974330691
 10
459.4478465011
 20
-4.4492186645
 10
457.8595626081
 20
-4.3778497063
 10
456.3336233128
 20
-4.4837662079
 10
454.8794365384
 20
-4.7663151589
 10
453.5059678298
 20
-5.2237545509
 10
452.2216850784
 20
-5.853264118
 10
451.0345063144
 20
-6.6509627245
 10
449.9517508896
 20
-7.6119322931
 10
448.9800943514
 20
-8.7302481269
 10
448.1255272853
 20
-9.9990154369
 10
447.3933183816
 20
-11.4104118507
 10
446.7879819515
 20
-12.9557356402
 10
446.3132500955
 20
-14.6254593702
 10
445.9720496934
 20
-16.4092886387
 10
445.766484359
 20
-18.2962255451
 10
445.697821471
 20
-20.274636496
 10
445.766484359
 20
-22.3323239298
 10
445.9720496934
 20
-24.4566015194
 10
446.3132500955
 20
-26.634372387
 10
446.7879819515
 20
-28.852209851
 10
447.3933183816
 20
-31.0964402059
 10
448.1255272853
 20
-33.3532270254
 10
448.9800943514
 20
-35.6086564682
 10
449.9517508896
 20
-37.8488230618
 10
451.0345063144
 20
-40.0599154342
 10
452.2216850784
 20
-42.2283014656
 10
453.5059678298
 20
-44.3406123353
 10
454.8794365384
 20
-46.3838249441
 10
456.3336233128
 20
-48.345342207
 10
457.8595626081
 20
-50.2130707177
 10
459.4478465011
 20
-51.9754953089
 10
461.0886826933
 20
-53.6217500469
 10
462.7719548841
 20
-55.1416852239
 10
464.4872851406
 20
-56.525929934
 10
466.2240978814
 20
-57.7659498482
 10
467.9716850784
 20
-58.8540998316
 10
469.7192722754
 20
-59.7836710775
 10
471.4560850162
 20
-60.5489324701
 10
473.1714152727
 20
-61.1451659185
 10
474.8546874635
 20
-61.5686954452
 10
476.4955236557
 20
-61.8169098499
 10
478.0838075486
 20
-61.888278808
 10
479.6097468439
 20
-61.7823623064
 10
481.0639336184
 20
-61.4998133555
 10
482.437402327
 20
-61.0423739635
 10
483.7216850784
 20
-60.4128643963
 10
484.9088638424
 20
-59.6151657899
 10
485.9916192671
 20
-58.6541962213
 10
486.9632758054
 20
-57.5358803875
 10
487.8178428714
 20
-56.2671130775
 10
488.5500517752
 20
-54.8557166636
 10
489.1553882052
 20
-53.3103928742
 10
489.6301200612
 20
-51.6406691442
 10
489.9713204634
 20
-49.8568398757
 10
490.1768857978
 20
-47.9699029692
 10
490.2455486858
 20
-45.9914920184
  0
LWPOLYLINE
  5
FF
330
1F
100
AcDbEntity
  8
0
  6
Continuous
 62
     7
370
    25
100
AcDbPolyline
 90
       73
 70
   128
 43
0.0
 10
486.1443293549
 20
-43.6239084941
 10
486.0751769569
 20
-41.7550157863
 10
485.8682460546
 20
-39.8205048212
 10
485.525111517
 20
-37.8350983955
 10
485.0483848052
 20
-35.8139066508
 10
484.4416940972
 20
-33.7723120767
 10
483.7096566758
 20
-31.7258524408
 10
482.8578437876
 20
-29.6901025365
 10
481.8927382432
 20
-27.6805556497
 10
480.8216850784
 20
-25.7125056458
 10
479.6528356546
 20
-23.8009305736
 10
478.3950856216
 20
-21.9603786737
 10
477.0580072166
 20
-20.2048576572
 10
475.6517764137
 20
-18.5477280993
 10
474.1870954784
 20
-17.0016017564
 10
472.675111517
 20
-15.5782455835
 10
471.1273316404
 20
-14.2884921807
 10
469.555535388
 20
-13.14215735
 10
467.9716850784
 20
-12.1479653917
 10
466.3878347688
 20
-11.313482707
 10
464.8160385164
 20
-10.6450602128
 10
463.2682586398
 20
-10.1477850081
 10
461.7562746783
 20
-9.8254416573
 10
460.291593743
 20
-9.6804833881
 10
458.8853629401
 20
-9.7140134203
 10
457.5482845352
 20
-9.9257765702
 10
456.2905345022
 20
-10.3141611924
 10
455.1216850784
 20
-10.8762114453
 10
454.0506319136
 20
-11.6076497871
 10
453.0855263692
 20
-12.5029095305
 10
452.233713481
 20
-13.5551772081
 10
451.5016760595
 20
-14.7564444277
 10
450.8949853516
 20
-16.0975688203
 10
450.4182586398
 20
-17.5683436194
 10
450.0751241022
 20
-19.1575753409
 10
449.8681931998
 20
-20.8531689716
 10
449.7990408019
 20
-22.6422200203
 10
449.8681931998
 20
-24.5111127281
 10
450.0751241022
 20
-26.4456236932
 10
450.4182586398
 20
-28.4310301189
 10
450.8949853516
 20
-30.4522218636
 10
451.5016760595
 20
-32.4938164377
 10
452.233713481
 20
-34.5402760736
 10
453.0855263692
 20
-36.5760259779
 10
454.0506319136
 20
-38.5855728646
 10
455.1216850784
 20
-40.5536228685
 10
456.2905345022
 20
-42.4651979407
 10
457.5482845352
 20
-44.3057498407
 10
458.8853629401
 20
-46.0612708571
 10
460.291593743
 20
-47.7184004151
 10
461.7562746783
 20
-49.264526758
 10
463.2682586398
 20
-50.6878829309
 10
464.8160385164
 20
-51.9776363337
 10
466.3878347688
 20
-53.1239711644
 10
467.9716850784
 20
-54.1181631227
 10
469.555535388
 20
-54.9526458074
 10
471.1273316404
 20
-55.6210683016
 10
472.675111517
 20
-56.1183435063
 10
474.1870954784
 20
-56.440686857
 10
475.6517764137
 20
-56.5856451263
 10
477.0580072166
 20
-56.5521150941
 10
478.3950856216
 20
-56.3403519442
 10
479.6528356546
 20
-55.951967322
 10
480.8216850784
 20
-55.3899170691
 10
481.8927382432
 20
-54.6584787273
 10
482.8578437876
 20
-53.7632189839
 10
483.7096566758
 20
-52.7109513062
 10
484.4416940972
 20
-51.5096840867
 10
485.0483848052
 20
-50.1685596941
 10
485.525111517
 20
-48.6977848949
 10
485.8682460546
 20
-47.1085531735
 10
486.0751769569
 20
-45.4129595428
 10
486.1443293549
 20
-43.6239084941
  0
LWPOLYLINE
  5
100
330
1F
100
AcDbEntity
  8
0
  6
Continuous
 62
     7
370
    25
100
AcDbPolyline
 90
       21
 70
   128
 43
0.0
 10
327.539921201
 20
14.8410638672
 10
327.5257325829
 20
15.0982255128
 10
327.3499640441
 20
15.7760768836
 10
326.9782829717
 20
16.4270296323
 10
326.4213819534
 20
17.0323570336
 10
325.6952820176
 20
17.5746449201
 10
324.8208717375
 20
18.0382926567
 10
323.8233063048
 20
18.4099619422
 10
322.7312838606
 20
18.678960528
 10
321.5762199026
 20
18.8375498145
 10
320.3913435177
 20
18.8811674767
 10
319.2107414422
 20
18.8085587139
 10
318.0683774483
 20
18.6218123479
 10
316.9971152683
 20
18.3263007317
 10
316.0277731646
 20
17.9305251964
 10
315.1882373447
 20
17.4458714837
 10
314.5026597255
 20
16.8862821985
 10
313.990763127
 20
16.2678557055
 10
313.6672738822
 20
15.6083830091
 10
313.5414981878
 20
14.9268359381
 10
313.539921201
 20
14.8410638672
  0
ENDSEC
  0
SECTION
  2
OBJECTS
  0
DICTIONARY
  5
C
330
0
100
AcDbDictionary
281
     1
  3
ACAD_GROUP
350
D
  3
ACAD_LAYOUT
350
1A
  3
ACAD_MLINESTYLE
350
17
  3
ACAD_PLOTSETTINGS
350
19
  3
ACAD_PLOTSTYLENAME
350
E
  3
ACAD_SCALELIST
350
47
  3
DWGPROPS
350
101
  0
DICTIONARY
  5
D
102
{ACAD_REACTORS
330
C
102
}
330
C
100
AcDbDictionary
281
     1
  0
DICTIONARY
  5
1A
102
{ACAD_REACTORS
330
C
102
}
330
C
100
AcDbDictionary
281
     1
  3
Layout1
350
1E
  3
Layout2
350
26
  3
Model
350
22
  0
DICTIONARY
  5
17
102
{ACAD_REACTORS
330
C
102
}
330
C
100
AcDbDictionary
281
     1
  3
Standard
350
18
  0
DICTIONARY
  5
19
102
{ACAD_REACTORS
330
C
102
}
330
C
100
AcDbDictionary
281
     1
  0
ACDBDICTIONARYWDFLT
  5
E
102
{ACAD_REACTORS
330
C
102
}
330
C
100
AcDbDictionary
281
     1
  3
Normal
350
F
100
AcDbDictionaryWithDefault
340
F
  0
DICTIONARY
  5
47
102
{ACAD_REACTORS
330
C
102
}
330
C
100
AcDbDictionary
281
     1
  3
A0
350
48
  3
A1
350
49
  3
A2
350
4A
  3
A3
350
4B
  3
A4
350
4C
  3
A5
350
4D
  3
A6
350
4E
  3
A7
350
4F
  3
A8
350
50
  3
A9
350
51
  3
B0
350
52
  3
B1
350
53
  3
B2
350
54
  3
B3
350
55
  3
B4
350
56
  3
B5
350
57
  3
B6
350
58
  3
B7
350
59
  3
B8
350
5A
  3
B9
350
5B
  3
C0
350
5C
  3
C1
350
5D
  3
C2
350
5E
  3
C3
350
5F
  3
C4
350
60
  3
C5
350
61
  3
C6
350
62
  3
C7
350
63
  3
C8
350
64
  3
C9
350
65
  3
D0
350
66
  3
D1
350
67
  3
D2
350
68
  0
XRECORD
  5
101
102
{ACAD_REACTORS
330
C
102
}
330
C
100
AcDbXrecord
280
     1
  1
DWGPROPS COOKIE
  2

  3

  4

  6

  7

  8
b.kav
  9

300
=
301
=
302
=
303
=
304
=
305
=
306
=
307
=
308
=
309
=
 40
0.0
 41
2459741.481093981
 42
2459741.481094155
  1

 90
        0
  0
LAYOUT
  5
1E
102
{ACAD_REACTORS
330
1A
102
}
330
1A
100
AcDbPlotSettings
  1

  2
none_device
  4

  6

 40
0.0
 41
0.0
 42
0.0
 43
0.0
 44
0.0
 45
0.0
 46
0.0
 47
0.0
 48
0.0
 49
0.0
140
0.0
141
0.0
142
1.0
143
1.0
 70
   688
 72
     1
 73
     0
 74
     5
  7

 75
    16
147
1.0
148
0.0
149
0.0
100
AcDbLayout
  1
Layout1
 70
     1
 71
     1
 10
0.0
 20
0.0
 11
420.0
 21
297.0
 12
0.0
 22
0.0
 32
0.0
 14
1.0000000000E+20
 24
1.0000000000E+20
 34
1.0000000000E+20
 15
-1.0000000000E+20
 25
-1.0000000000E+20
 35
-1.0000000000E+20
146
0.0
 13
0.0
 23
0.0
 33
0.0
 16
1.0
 26
0.0
 36
0.0
 17
0.0
 27
1.0
 37
0.0
 76
     0
330
1B
  0
LAYOUT
  5
26
102
{ACAD_REACTORS
330
1A
102
}
330
1A
100
AcDbPlotSettings
  1

  2
none_device
  4

  6

 40
0.0
 41
0.0
 42
0.0
 43
0.0
 44
0.0
 45
0.0
 46
0.0
 47
0.0
 48
0.0
 49
0.0
140
0.0
141
0.0
142
1.0
143
1.0
 70
   688
 72
     1
 73
     0
 74
     5
  7

 75
    16
147
1.0
148
0.0
149
0.0
100
AcDbLayout
  1
Layout2
 70
     1
 71
     2
 10
0.0
 20
0.0
 11
0.0
 21
0.0
 12
0.0
 22
0.0
 32
0.0
 14
0.0
 24
0.0
 34
0.0
 15
0.0
 25
0.0
 35
0.0
146
0.0
 13
0.0
 23
0.0
 33
0.0
 16
1.0
 26
0.0
 36
0.0
 17
0.0
 27
1.0
 37
0.0
 76
     0
330
23
  0
LAYOUT
  5
22
102
{ACAD_REACTORS
330
1A
102
}
330
1A
100
AcDbPlotSettings
  1

  2
none_device
  4
Letter_(8.50_x_11.00_Inches)
  6

 40
6.35
 41
6.35
 42
6.35000508
 43
6.35000508
 44
215.9
 45
279.4
 46
0.0
 47
0.0
 48
0.0
 49
0.0
140
0.0
141
0.0
142
1.0
143
1.0
 70
  1712
 72
     1
 73
     0
 74
     0
  7

 75
     0
147
1.0
148
0.0
149
0.0
100
AcDbLayout
  1
Model
 70
     1
 71
     0
 10
0.0
 20
0.0
 11
279.4
 21
215.9
 12
0.0
 22
0.0
 32
0.0
 14
0.0
 24
0.0
 34
0.0
 15
279.4
 25
215.9
 35
0.0
146
0.0
 13
0.0
 23
0.0
 33
0.0
 16
1.0
 26
0.0
 36
0.0
 17
0.0
 27
1.0
 37
0.0
 76
     0
330
1F
331
29
  0
MLINESTYLE
  5
18
102
{ACAD_REACTORS
330
17
102
}
330
17
100
AcDbMlineStyle
  2
Standard
 70
     0
  3

 62
   256
 51
90.0
 52
90.0
 71
     2
 49
0.5
 62
   256
  6
BYLAYER
 49
-0.5
 62
   256
  6
BYLAYER
  0
ACDBPLACEHOLDER
  5
F
102
{ACAD_REACTORS
330
E
102
}
330
E
  0
SCALE
  5
48
102
{ACAD_REACTORS
330
47
102
}
330
47
100
AcDbScale
 70
     0
300
1:1
140
1.0
141
1.0
290
     1
  0
SCALE
  5
49
102
{ACAD_REACTORS
330
47
102
}
330
47
100
AcDbScale
 70
     0
300
1:2
140
1.0
141
2.0
290
     0
  0
SCALE
  5
4A
102
{ACAD_REACTORS
330
47
102
}
330
47
100
AcDbScale
 70
     0
300
1:4
140
1.0
141
4.0
290
     0
  0
SCALE
  5
4B
102
{ACAD_REACTORS
330
47
102
}
330
47
100
AcDbScale
 70
     0
300
1:5
140
1.0
141
5.0
290
     0
  0
SCALE
  5
4C
102
{ACAD_REACTORS
330
47
102
}
330
47
100
AcDbScale
 70
     0
300
1:8
140
1.0
141
8.0
290
     0
  0
SCALE
  5
4D
102
{ACAD_REACTORS
330
47
102
}
330
47
100
AcDbScale
 70
     0
300
1:10
140
1.0
141
10.0
290
     0
  0
SCALE
  5
4E
102
{ACAD_REACTORS
330
47
102
}
330
47
100
AcDbScale
 70
     0
300
1:16
140
1.0
141
16.0
290
     0
  0
SCALE
  5
4F
102
{ACAD_REACTORS
330
47
102
}
330
47
100
AcDbScale
 70
     0
300
1:20
140
1.0
141
20.0
290
     0
  0
SCALE
  5
50
102
{ACAD_REACTORS
330
47
102
}
330
47
100
AcDbScale
 70
     0
300
1:30
140
1.0
141
30.0
290
     0
  0
SCALE
  5
51
102
{ACAD_REACTORS
330
47
102
}
330
47
100
AcDbScale
 70
     0
300
1:40
140
1.0
141
40.0
290
     0
  0
SCALE
  5
52
102
{ACAD_REACTORS
330
47
102
}
330
47
100
AcDbScale
 70
     0
300
1:50
140
1.0
141
50.0
290
     0
  0
SCALE
  5
53
102
{ACAD_REACTORS
330
47
102
}
330
47
100
AcDbScale
 70
     0
300
1:100
140
1.0
141
100.0
290
     0
  0
SCALE
  5
54
102
{ACAD_REACTORS
330
47
102
}
330
47
100
AcDbScale
 70
     0
300
2:1
140
2.0
141
1.0
290
     0
  0
SCALE
  5
55
102
{ACAD_REACTORS
330
47
102
}
330
47
100
AcDbScale
 70
     0
300
4:1
140
4.0
141
1.0
290
     0
  0
SCALE
  5
56
102
{ACAD_REACTORS
330
47
102
}
330
47
100
AcDbScale
 70
     0
300
8:1
140
8.0
141
1.0
290
     0
  0
SCALE
  5
57
102
{ACAD_REACTORS
330
47
102
}
330
47
100
AcDbScale
 70
     0
300
10:1
140
10.0
141
1.0
290
     0
  0
SCALE
  5
58
102
{ACAD_REACTORS
330
47
102
}
330
47
100
AcDbScale
 70
     0
300
100:1
140
100.0
141
1.0
290
     0
  0
SCALE
  5
59
102
{ACAD_REACTORS
330
47
102
}
330
47
100
AcDbScale
 70
     0
300
1/128" = 1'-0"
140
0.0078125
141
12.0
290
     0
  0
SCALE
  5
5A
102
{ACAD_REACTORS
330
47
102
}
330
47
100
AcDbScale
 70
     0
300
1/64" = 1'-0"
140
0.015625
141
12.0
290
     0
  0
SCALE
  5
5B
102
{ACAD_REACTORS
330
47
102
}
330
47
100
AcDbScale
 70
     0
300
1/32" = 1'-0"
140
0.03125
141
12.0
290
     0
  0
SCALE
  5
5C
102
{ACAD_REACTORS
330
47
102
}
330
47
100
AcDbScale
 70
     0
300
1/16" = 1'-0"
140
0.0625
141
12.0
290
     0
  0
SCALE
  5
5D
102
{ACAD_REACTORS
330
47
102
}
330
47
100
AcDbScale
 70
     0
300
3/32" = 1'-0"
140
0.09375
141
12.0
290
     0
  0
SCALE
  5
5E
102
{ACAD_REACTORS
330
47
102
}
330
47
100
AcDbScale
 70
     0
300
1/8" = 1'-0"
140
0.125
141
12.0
290
     0
  0
SCALE
  5
5F
102
{ACAD_REACTORS
330
47
102
}
330
47
100
AcDbScale
 70
     0
300
3/16" = 1'-0"
140
0.1875
141
12.0
290
     0
  0
SCALE
  5
60
102
{ACAD_REACTORS
330
47
102
}
330
47
100
AcDbScale
 70
     0
300
1/4" = 1'-0"
140
0.25
141
12.0
290
     0
  0
SCALE
  5
61
102
{ACAD_REACTORS
330
47
102
}
330
47
100
AcDbScale
 70
     0
300
3/8" = 1'-0"
140
0.375
141
12.0
290
     0
  0
SCALE
  5
62
102
{ACAD_REACTORS
330
47
102
}
330
47
100
AcDbScale
 70
     0
300
1/2" = 1'-0"
140
0.5
141
12.0
290
     0
  0
SCALE
  5
63
102
{ACAD_REACTORS
330
47
102
}
330
47
100
AcDbScale
 70
     0
300
3/4" = 1'-0"
140
0.75
141
12.0
290
     0
  0
SCALE
  5
64
102
{ACAD_REACTORS
330
47
102
}
330
47
100
AcDbScale
 70
     0
300
1" = 1'-0"
140
1.0
141
12.0
290
     0
  0
SCALE
  5
65
102
{ACAD_REACTORS
330
47
102
}
330
47
100
AcDbScale
 70
     0
300
1-1/2" = 1'-0"
140
1.5
141
12.0
290
     0
  0
SCALE
  5
66
102
{ACAD_REACTORS
330
47
102
}
330
47
100
AcDbScale
 70
     0
300
3" = 1'-0"
140
3.0
141
12.0
290
     0
  0
SCALE
  5
67
102
{ACAD_REACTORS
330
47
102
}
330
47
100
AcDbScale
 70
     0
300
6" = 1'-0"
140
6.0
141
12.0
290
     0
  0
SCALE
  5
68
102
{ACAD_REACTORS
330
47
102
}
330
47
100
AcDbScale
 70
     0
300
1'-0" = 1'-0"
140
12.0
141
12.0
290
     0
  0
ENDSEC
  0
EOF
